  0
SECTION
  2
HEADER
  9
$ACADVER
  1
AC1006
  9
$DWGCODEPAGE
  3
ansi_932
  9
$INSBASE
 10
0.0
 20
0.0
 30
0.0
  9
$EXTMIN
 10
-4259.095114017611
 20
-15444.17079040498
  9
$EXTMAX
 10
41474.90488598239
 20
45686.71875
  9
$LIMMIN
 10
0.0
 20
0.0
  9
$LIMMAX
 10
12.0
 20
9.0
  9
$ORTHOMODE
 70
     0
  9
$REGENMODE
 70
     1
  9
$FILLMODE
 70
     1
  9
$QTEXTMODE
 70
     0
  9
$MIRRTEXT
 70
     1
  9
$DRAGMODE
 70
     2
  9
$LTSCALE
 40
250.0
  9
$OSMODE
 70
    37
  9
$ATTMODE
 70
     1
  9
$TEXTSIZE
 40
0.2
  9
$TRACEWID
 40
1.0
  9
$TEXTSTYLE
  7
STANDARD
  9
$CLAYER
  8
0
  9
$CELTYPE
  6
BYLAYER
  9
$CECOLOR
 62
   256
  9
$DIMSCALE
 40
1.0
  9
$DIMASZ
 40
0.18
  9
$DIMEXO
 40
0.0625
  9
$DIMDLI
 40
0.38
  9
$DIMRND
 40
0.0
  9
$DIMDLE
 40
0.0
  9
$DIMEXE
 40
0.18
  9
$DIMTP
 40
0.0
  9
$DIMTM
 40
0.0
  9
$DIMTXT
 40
0.18
  9
$DIMCEN
 40
0.09
  9
$DIMTSZ
 40
0.0
  9
$DIMTOL
 70
     0
  9
$DIMLIM
 70
     0
  9
$DIMTIH
 70
     1
  9
$DIMTOH
 70
     1
  9
$DIMSE1
 70
     0
  9
$DIMSE2
 70
     0
  9
$DIMTAD
 70
     0
  9
$DIMZIN
 70
     0
  9
$DIMBLK
  1

  9
$DIMASO
 70
     1
  9
$DIMSHO
 70
     1
  9
$DIMPOST
  1

  9
$DIMAPOST
  1

  9
$DIMALT
 70
     0
  9
$DIMALTD
 70
     2
  9
$DIMALTF
 40
25.4
  9
$DIMLFAC
 40
1.0
  9
$DIMTOFL
 70
     0
  9
$DIMTVP
 40
0.0
  9
$DIMTIX
 70
     0
  9
$DIMSOXD
 70
     0
  9
$DIMSAH
 70
     0
  9
$DIMBLK1
  1

  9
$DIMBLK2
  1

  9
$LUNITS
 70
     2
  9
$LUPREC
 70
     1
  9
$SKETCHINC
 40
0.1
  9
$FILLETRAD
 40
0.5
  9
$AUNITS
 70
     0
  9
$AUPREC
 70
     2
  9
$MENU
  1
.
  9
$ELEVATION
 40
0.0
  9
$THICKNESS
 40
0.0
  9
$LIMCHECK
 70
     0
  9
$CHAMFERA
 40
0.0
  9
$CHAMFERB
 40
0.0
  9
$SKPOLY
 70
     0
  9
$TDCREATE
 40
2460298.265413912
  9
$TDUPDATE
 40
2460316.358745371
  9
$TDINDWG
 40
0.0000000116
  9
$TDUSRTIMER
 40
0.0000000116
  9
$USRTIMER
 70
     1
  9
$ANGBASE
 50
0.0
  9
$ANGDIR
 70
     0
  9
$PDMODE
 70
     1
  9
$PDSIZE
 40
-2.0
  9
$PLINEWID
 40
0.0
  9
$COORDS
 70
     1
  9
$SPLFRAME
 70
     0
  9
$SPLINETYPE
 70
     6
  9
$SPLINESEGS
 70
     8
  9
$ATTDIA
 70
     0
  9
$ATTREQ
 70
     1
  9
$HANDLING
 70
     1
  9
$HANDSEED
  5
7A0
  9
$SURFTAB1
 70
     6
  9
$SURFTAB2
 70
     6
  9
$SURFTYPE
 70
     6
  9
$SURFU
 70
     6
  9
$SURFV
 70
     6
  9
$UCSNAME
  2

  9
$UCSORG
 10
0.0
 20
0.0
 30
0.0
  9
$UCSXDIR
 10
1.0
 20
0.0
 30
0.0
  9
$UCSYDIR
 10
0.0
 20
1.0
 30
0.0
  9
$USERI1
 70
     0
  9
$USERI2
 70
     0
  9
$USERI3
 70
     0
  9
$USERI4
 70
     0
  9
$USERI5
 70
     0
  9
$USERR1
 40
0.0
  9
$USERR2
 40
0.0
  9
$USERR3
 40
0.0
  9
$USERR4
 40
0.0
  9
$USERR5
 40
0.0
  9
$WORLDVIEW
 70
     1
  0
ENDSEC
  0
SECTION
  2
TABLES
  0
TABLE
  2
VPORT
 70
     1
  0
VPORT
  2
*ACTIVE
 70
     0
 10
0.0
 20
0.0
 11
1.0
 21
1.0
 12
18607.90488598239
 22
15121.27397979751
 13
0.0
 23
0.0
 14
0.5
 24
0.5
 15
0.5
 25
0.5
 16
0.0
 26
0.0
 36
1.0
 17
0.0
 27
0.0
 37
0.0
 40
61130.88954040498
 41
0.7481324146243893
 42
2000.0
 43
0.0
 44
0.0
 50
0.0
 51
0.0
 71
     0
 72
   100
 73
     1
 74
     3
 75
     0
 76
     0
 77
     0
 78
     0
  0
ENDTAB
  0
TABLE
  2
LTYPE
 70
    11
  0
LTYPE
  2
CONTINUOUS
 70
     0
  3
Solid line
 72
    65
 73
     0
 40
0.0
  0
LTYPE
  2
ラインタイプ-1
 70
     0
  3

 72
    65
 73
     6
 40
0.1587499999999999
 49
0.079375
 49
-0.015875
 49
0.015875
 49
-0.015875
 49
0.015875
 49
-0.015875
  0
LTYPE
  2
ラインタイプ-2
 70
     0
  3

 72
    65
 73
     6
 40
0.3174999999999999
 49
0.15875
 49
-0.03175
 49
0.03175
 49
-0.03175
 49
0.03175
 49
-0.03175
  0
LTYPE
  2
ラインタイプ-3
 70
     0
  3

 72
    65
 73
     4
 40
0.5079999999999999
 49
0.3175
 49
-0.0635
 49
0.0635
 49
-0.0635
  0
LTYPE
  2
ラインタイプ-4
 70
     0
  3

 72
    65
 73
     4
 40
0.2539999999999999
 49
0.15875
 49
-0.03175
 49
0.03175
 49
-0.03175
  0
LTYPE
  2
ラインタイプ-5
 70
     0
  3

 72
    65
 73
     2
 40
0.211615
 49
0.0705384
 49
-0.1410766
  0
LTYPE
  2
ラインタイプ-6
 70
     0
  3

 72
    65
 73
     4
 40
1.0583076
 49
0.6349999999999996
 49
-0.2116149999999999
 49
0.0705384000000001
 49
-0.1411542
  0
LTYPE
  2
ラインタイプ-7
 70
     0
  3

 72
    65
 73
     6
 40
1.905000199999999
 49
0.6349999999999996
 49
-0.2116149999999999
 49
0.6349999999999995
 49
-0.2116925999999999
 49
0.0705384000000001
 49
-0.1411542000000001
  0
LTYPE
  2
ラインタイプ-8
 70
     0
  3

 72
    65
 73
     6
 40
1.270000199999999
 49
0.6349999999999996
 49
-0.2116149999999999
 49
0.0705384000000001
 49
-0.1411542
 49
0.0705383999999999
 49
-0.1411542
  0
LTYPE
  2
ラインタイプ-9
 70
     0
  3

 72
    65
 73
     4
 40
25.4
 49
19.05
 49
-1.411147799999999
 49
3.527704400000002
 49
-1.411147799999999
  0
LTYPE
  2
ラインタイプ-10
 70
     0
  3

 72
    65
 73
     6
 40
30.1625
 49
19.05
 49
-1.411147799999999
 49
3.527704400000002
 49
-1.411147799999999
 49
3.175
 49
-1.5875
  0
ENDTAB
  0
TABLE
  2
LAYER
 70
     3
  0
LAYER
  2
0
 70
     0
 62
     7
  6
CONTINUOUS
  0
LAYER
  2
一般
 70
     0
 62
     7
  6
CONTINUOUS
  0
LAYER
  2
VENUE
 70
     0
 62
     7
  6
CONTINUOUS
  0
ENDTAB
  0
TABLE
  2
STYLE
 70
     4
  0
STYLE
  2
STANDARD
 70
     0
 40
0.0
 41
1.0
 50
0.0
 71
     0
 42
0.2
  3
txt
  4
BIGFONT.SHX
  0
STYLE
  2
OSAKA
 70
     0
 40
0.0
 41
1.0
 50
0.0
 71
     0
 42
0.2
  3

  4
Osaka
  0
STYLE
  2
ＭＳ_ゴシック
 70
     0
 40
0.0
 41
1.0
 50
0.0
 71
     0
 42
0.2
  3

  4
ＭＳ ゴシック
  0
STYLE
  2
FELIX_TITLING
 70
     0
 40
0.0
 41
1.0
 50
0.0
 71
     0
 42
0.2
  3

  4
Felix Titling
  0
ENDTAB
  0
TABLE
  2
VIEW
 70
     0
  0
ENDTAB
  0
TABLE
  2
UCS
 70
     0
  0
ENDTAB
  0
ENDSEC
  0
SECTION
  2
BLOCKS
  0
BLOCK
  8
0
  2
グループ
 70
     0
 10
0.0
 20
0.0
 30
0.0
  0
LINE
  5
C5
  8
0
  6
CONTINUOUS
 62
   253
 10
-1777.923455392548
 20
13033.34859849197
 30
0.0
 11
1012.07654460744
 21
13033.34859849197
 31
0.0
  0
LINE
  5
C6
  8
0
  6
CONTINUOUS
 62
   253
 10
-1777.923455392548
 20
11560.81581942201
 30
0.0
 11
1012.07654460744
 21
11560.81581942201
 31
0.0
  0
LINE
  5
C7
  8
0
  6
CONTINUOUS
 62
   253
 10
-1777.923455392548
 20
13033.34859849197
 30
0.0
 11
-1777.923455392548
 21
11593.34859849197
 31
0.0
  0
LINE
  5
C8
  8
0
  6
CONTINUOUS
 62
   253
 10
1004.535906416832
 20
13033.34859849197
 30
0.0
 11
1004.535906416832
 21
11555.18633923253
 31
0.0
  0
LINE
  5
C9
  8
0
  6
CONTINUOUS
 62
   253
 10
-1777.923455392548
 20
12333.85703498728
 30
0.0
 11
1012.07654460744
 21
12333.85703498728
 31
0.0
  0
LINE
  5
CA
  8
0
  6
CONTINUOUS
 62
   253
 10
-329.2589496651452
 20
11560.81581942201
 30
0.0
 11
-329.2589496651452
 21
13033.34859849197
 31
0.0
  0
ENDBLK
  8
0
  0
BLOCK
  8
0
  2
グループ-1
 70
     0
 10
0.0
 20
0.0
 30
0.0
  0
LINE
  5
CB
  8
0
  6
CONTINUOUS
 62
   253
 10
1645.881867348982
 20
13033.34859849197
 30
0.0
 11
4435.881867348982
 21
13033.34859849197
 31
0.0
  0
LINE
  5
CC
  8
0
  6
CONTINUOUS
 62
   253
 10
1645.881867348982
 20
11560.81581942201
 30
0.0
 11
4435.881867348982
 21
11560.81581942201
 31
0.0
  0
LINE
  5
CD
  8
0
  6
CONTINUOUS
 62
   253
 10
1645.881867348982
 20
13033.34859849197
 30
0.0
 11
1645.881867348982
 21
11555.18633923253
 31
0.0
  0
LINE
  5
CE
  8
0
  6
CONTINUOUS
 62
   253
 10
4434.084711640647
 20
13033.34859849197
 30
0.0
 11
4434.084711640647
 21
11555.18633923253
 31
0.0
  0
LINE
  5
CF
  8
0
  6
CONTINUOUS
 62
   253
 10
1645.881867348982
 20
12333.85703498728
 30
0.0
 11
4435.881867348982
 21
12333.85703498728
 31
0.0
  0
ENDBLK
  8
0
  0
BLOCK
  8
0
  2
グループ-2
 70
     0
 10
0.0
 20
0.0
 30
0.0
  0
LINE
  5
D0
  8
0
  6
CONTINUOUS
 62
   253
 10
-1740.629491862375
 20
7597.504232149284
 30
0.0
 11
1007.916893201722
 21
7597.504232149284
 31
0.0
  0
LINE
  5
D1
  8
0
  6
CONTINUOUS
 62
   253
 10
1007.916893201722
 20
7597.504232149284
 30
0.0
 11
1007.916893201722
 21
5125.330867604042
 31
0.0
  0
LINE
  5
D2
  8
0
  6
CONTINUOUS
 62
   253
 10
1007.916893201722
 20
5125.330867604042
 30
0.0
 11
-1722.037336377235
 21
5125.330867604042
 31
0.0
  0
LINE
  5
D3
  8
0
  6
CONTINUOUS
 62
   253
 10
-1740.629491862375
 20
5125.330867604042
 30
0.0
 11
-1740.629491862375
 21
7597.504232149284
 31
0.0
  0
LINE
  5
D4
  8
0
  6
CONTINUOUS
 62
   253
 10
-1740.629491862375
 20
6361.417549876666
 30
0.0
 11
1007.916893201722
 21
6361.417549876666
 31
0.0
  0
LINE
  5
D5
  8
0
  6
CONTINUOUS
 62
   253
 10
-347.7641438451873
 20
5125.330867604042
 30
0.0
 11
-347.7641438451873
 21
7597.504232149284
 31
0.0
  0
ENDBLK
  8
0
  0
BLOCK
  8
0
  2
グループ-3
 70
     0
 10
0.0
 20
0.0
 30
0.0
  0
LINE
  5
D6
  8
0
  6
CONTINUOUS
 62
   253
 10
1611.764712453436
 20
7579.340685008048
 30
0.0
 11
4360.311097517533
 21
7579.340685008048
 31
0.0
  0
LINE
  5
D7
  8
0
  6
CONTINUOUS
 62
   253
 10
4360.311097517533
 20
7579.340685008048
 30
0.0
 11
4360.311097517533
 21
5107.167320462808
 31
0.0
  0
LINE
  5
D8
  8
0
  6
CONTINUOUS
 62
   253
 10
4360.311097517533
 20
5107.167320462808
 30
0.0
 11
1630.356867938576
 21
5107.167320462808
 31
0.0
  0
LINE
  5
D9
  8
0
  6
CONTINUOUS
 62
   253
 10
1611.764712453436
 20
5107.167320462808
 30
0.0
 11
1611.764712453436
 21
7579.340685008048
 31
0.0
  0
LINE
  5
DA
  8
0
  6
CONTINUOUS
 62
   253
 10
1611.764712453436
 20
6343.254002735432
 30
0.0
 11
4360.311097517533
 21
6343.254002735432
 31
0.0
  0
LINE
  5
DB
  8
0
  6
CONTINUOUS
 62
   253
 10
3004.630060470623
 20
5107.167320462808
 30
0.0
 11
3004.630060470623
 21
7579.340685008048
 31
0.0
  0
ENDBLK
  8
0
  0
BLOCK
  8
0
  2
グループ-4
 70
     0
 10
0.0
 20
0.0
 30
0.0
  0
LINE
  5
DC
  8
0
  6
CONTINUOUS
 62
   253
 10
5068.070159929793
 20
7559.034158484248
 30
0.0
 11
7816.616544993889
 21
7559.034158484248
 31
0.0
  0
LINE
  5
DD
  8
0
  6
CONTINUOUS
 62
   253
 10
7816.616544993889
 20
7559.034158484248
 30
0.0
 11
7816.616544993889
 21
5086.860793939008
 31
0.0
  0
LINE
  5
DE
  8
0
  6
CONTINUOUS
 62
   253
 10
7816.616544993889
 20
5086.860793939008
 30
0.0
 11
5086.662315414933
 21
5086.860793939008
 31
0.0
  0
LINE
  5
DF
  8
0
  6
CONTINUOUS
 62
   253
 10
5068.070159929793
 20
5086.860793939008
 30
0.0
 11
5068.070159929793
 21
7559.034158484248
 31
0.0
  0
LINE
  5
E0
  8
0
  6
CONTINUOUS
 62
   253
 10
5068.070159929793
 20
6322.947476211632
 30
0.0
 11
7816.616544993889
 21
6322.947476211632
 31
0.0
  0
LINE
  5
E1
  8
0
  6
CONTINUOUS
 62
   253
 10
6460.935507946981
 20
5086.860793939008
 30
0.0
 11
6460.935507946981
 21
7559.034158484248
 31
0.0
  0
ENDBLK
  8
0
  0
BLOCK
  8
0
  2
グループ-5
 70
     0
 10
0.0
 20
0.0
 30
0.0
  0
INSERT
  5
E2
  8
0
 62
   253
  2
グループ-2
 10
0.0
 20
0.0
 30
0.0
  0
INSERT
  5
E3
  8
0
 62
   253
  2
グループ-3
 10
0.0
 20
0.0
 30
0.0
  0
INSERT
  5
E4
  8
0
 62
   253
  2
グループ-4
 10
0.0
 20
0.0
 30
0.0
  0
ENDBLK
  8
0
  0
BLOCK
  8
0
  2
グループ-6
 70
     0
 10
0.0
 20
0.0
 30
0.0
  0
LINE
  5
E5
  8
0
  6
CONTINUOUS
 62
   253
 10
5040.721926892234
 20
13019.6541014271
 30
0.0
 11
7830.721926892224
 21
13019.6541014271
 31
0.0
  0
LINE
  5
E6
  8
0
  6
CONTINUOUS
 62
   253
 10
5040.721926892234
 20
11547.12132235714
 30
0.0
 11
7830.721926892224
 21
11547.12132235714
 31
0.0
  0
LINE
  5
E7
  8
0
  6
CONTINUOUS
 62
   253
 10
5040.721926892234
 20
13019.6541014271
 30
0.0
 11
5040.721926892234
 21
11579.6541014271
 31
0.0
  0
LINE
  5
E8
  8
0
  6
CONTINUOUS
 62
   253
 10
7823.181288701615
 20
13019.6541014271
 30
0.0
 11
7823.181288701615
 21
11541.49184216766
 31
0.0
  0
LINE
  5
E9
  8
0
  6
CONTINUOUS
 62
   253
 10
5040.721926892234
 20
12320.16253792241
 30
0.0
 11
7830.721926892224
 21
12320.16253792241
 31
0.0
  0
LINE
  5
EA
  8
0
  6
CONTINUOUS
 62
   253
 10
6489.386432619638
 20
11547.12132235714
 30
0.0
 11
6489.386432619638
 21
13019.6541014271
 31
0.0
  0
ENDBLK
  8
0
  0
BLOCK
  8
0
  2
グループ-7
 70
     0
 10
0.0
 20
0.0
 30
0.0
  0
LINE
  5
EB
  8
0
  6
CONTINUOUS
 62
   253
 10
-1705.465723696222
 20
4545.186339232534
 30
0.0
 11
1040.204784389859
 21
4545.186339232534
 31
0.0
  0
LINE
  5
EC
  8
0
  6
CONTINUOUS
 62
   253
 10
1040.204784389859
 20
4545.186339232534
 30
0.0
 11
1040.204784389859
 21
1870.186339232537
 31
0.0
  0
LINE
  5
ED
  8
0
  6
CONTINUOUS
 62
   253
 10
1040.204784389859
 20
1870.186339232537
 30
0.0
 11
-1686.893021676455
 21
1870.186339232537
 31
0.0
  0
LINE
  5
EE
  8
0
  6
CONTINUOUS
 62
   253
 10
-1705.465723696222
 20
1870.186339232537
 30
0.0
 11
-1705.465723696222
 21
4545.186339232534
 31
0.0
  0
LINE
  5
EF
  8
0
  6
CONTINUOUS
 62
   253
 10
-1705.465723696222
 20
3207.686339232538
 30
0.0
 11
1040.204784389859
 21
3207.686339232538
 31
0.0
  0
LINE
  5
F0
  8
0
  6
CONTINUOUS
 62
   253
 10
-314.0577676334154
 20
1870.186339232537
 30
0.0
 11
-314.0577676334154
 21
4545.186339232534
 31
0.0
  0
ENDBLK
  8
0
  0
BLOCK
  8
0
  2
グループ-8
 70
     0
 10
0.0
 20
0.0
 30
0.0
  0
LINE
  5
F1
  8
0
  6
CONTINUOUS
 62
   253
 10
1643.420781653394
 20
4525.865253151931
 30
0.0
 11
4389.091289739474
 21
4525.865253151931
 31
0.0
  0
LINE
  5
F2
  8
0
  6
CONTINUOUS
 62
   253
 10
4389.091289739474
 20
4525.865253151931
 30
0.0
 11
4389.091289739474
 21
1896.143535739348
 31
0.0
  0
LINE
  5
F3
  8
0
  6
CONTINUOUS
 62
   253
 10
4389.091289739474
 20
1896.143535739348
 30
0.0
 11
1661.99348367316
 21
1896.143535739348
 31
0.0
  0
LINE
  5
F4
  8
0
  6
CONTINUOUS
 62
   253
 10
1643.420781653394
 20
1896.143535739348
 30
0.0
 11
1643.420781653394
 21
4525.865253151931
 31
0.0
  0
LINE
  5
F5
  8
0
  6
CONTINUOUS
 62
   253
 10
1643.420781653394
 20
3211.004394445642
 30
0.0
 11
4389.091289739474
 21
3211.004394445642
 31
0.0
  0
LINE
  5
F6
  8
0
  6
CONTINUOUS
 62
   253
 10
3034.828737716199
 20
1896.143535739348
 30
0.0
 11
3034.828737716199
 21
4525.865253151931
 31
0.0
  0
ENDBLK
  8
0
  0
BLOCK
  8
0
  2
グループ-9
 70
     0
 10
0.0
 20
0.0
 30
0.0
  0
LINE
  5
F7
  8
0
  6
CONTINUOUS
 62
   253
 10
5096.109805073964
 20
4504.264618434845
 30
0.0
 11
7841.780313160043
 21
4504.264618434845
 31
0.0
  0
LINE
  5
F8
  8
0
  6
CONTINUOUS
 62
   253
 10
7841.780313160043
 20
4504.264618434845
 30
0.0
 11
7841.780313160043
 21
1874.542901022261
 31
0.0
  0
LINE
  5
F9
  8
0
  6
CONTINUOUS
 62
   253
 10
7841.780313160043
 20
1874.542901022261
 30
0.0
 11
5114.68250709373
 21
1874.542901022261
 31
0.0
  0
LINE
  5
FA
  8
0
  6
CONTINUOUS
 62
   253
 10
5096.109805073964
 20
1874.542901022261
 30
0.0
 11
5096.109805073964
 21
4504.264618434845
 31
0.0
  0
LINE
  5
FB
  8
0
  6
CONTINUOUS
 62
   253
 10
5096.109805073964
 20
3189.403759728556
 30
0.0
 11
7841.780313160043
 21
3189.403759728556
 31
0.0
  0
LINE
  5
FC
  8
0
  6
CONTINUOUS
 62
   253
 10
6487.517761136769
 20
1874.542901022261
 30
0.0
 11
6487.517761136769
 21
4504.264618434845
 31
0.0
  0
ENDBLK
  8
0
  0
BLOCK
  8
0
  2
グループ-10
 70
     0
 10
0.0
 20
0.0
 30
0.0
  0
INSERT
  5
FD
  8
0
 62
   253
  2
グループ-7
 10
0.0
 20
0.0
 30
0.0
  0
INSERT
  5
FE
  8
0
 62
   253
  2
グループ-8
 10
0.0
 20
0.0
 30
0.0
  0
INSERT
  5
FF
  8
0
 62
   253
  2
グループ-9
 10
0.0
 20
0.0
 30
0.0
  0
ENDBLK
  8
0
  0
BLOCK
  8
0
  2
グループ-11
 70
     0
 10
0.0
 20
0.0
 30
0.0
  0
LINE
  5
100
  8
0
  6
CONTINUOUS
 62
   253
 10
-1741.613724119679
 20
1221.939061323833
 30
0.0
 11
1004.056783966404
 21
1221.939061323833
 31
0.0
  0
LINE
  5
101
  8
0
  6
CONTINUOUS
 62
   253
 10
1004.056783966404
 20
1221.939061323833
 30
0.0
 11
1004.056783966404
 21
-1453.060938676163
 31
0.0
  0
LINE
  5
102
  8
0
  6
CONTINUOUS
 62
   253
 10
1004.056783966404
 20
-1453.060938676163
 30
0.0
 11
-1723.041022099912
 21
-1453.060938676163
 31
0.0
  0
LINE
  5
103
  8
0
  6
CONTINUOUS
 62
   253
 10
-1741.613724119679
 20
-1453.060938676163
 30
0.0
 11
-1741.613724119679
 21
1221.939061323833
 31
0.0
  0
LINE
  5
104
  8
0
  6
CONTINUOUS
 62
   253
 10
-1741.613724119679
 20
-115.5609386761612
 30
0.0
 11
1004.056783966404
 21
-115.5609386761612
 31
0.0
  0
LINE
  5
105
  8
0
  6
CONTINUOUS
 62
   253
 10
-350.205768056869
 20
-1453.060938676163
 30
0.0
 11
-350.205768056869
 21
1221.939061323833
 31
0.0
  0
ENDBLK
  8
0
  0
BLOCK
  8
0
  2
グループ-12
 70
     0
 10
0.0
 20
0.0
 30
0.0
  0
LINE
  5
106
  8
0
  6
CONTINUOUS
 62
   253
 10
1607.272781229939
 20
1202.617975243231
 30
0.0
 11
4352.943289316019
 21
1202.617975243231
 31
0.0
  0
LINE
  5
107
  8
0
  6
CONTINUOUS
 62
   253
 10
4352.943289316019
 20
1202.617975243231
 30
0.0
 11
4352.943289316019
 21
-1427.103742169352
 31
0.0
  0
LINE
  5
108
  8
0
  6
CONTINUOUS
 62
   253
 10
4352.943289316019
 20
-1427.103742169352
 30
0.0
 11
1625.845483249706
 21
-1427.103742169352
 31
0.0
  0
LINE
  5
109
  8
0
  6
CONTINUOUS
 62
   253
 10
1607.272781229939
 20
-1427.103742169352
 30
0.0
 11
1607.272781229939
 21
1202.617975243231
 31
0.0
  0
LINE
  5
10A
  8
0
  6
CONTINUOUS
 62
   253
 10
1607.272781229939
 20
-112.2428834630569
 30
0.0
 11
4352.943289316019
 21
-112.2428834630569
 31
0.0
  0
LINE
  5
10B
  8
0
  6
CONTINUOUS
 62
   253
 10
2998.680737292745
 20
-1427.103742169352
 30
0.0
 11
2998.680737292745
 21
1202.617975243231
 31
0.0
  0
ENDBLK
  8
0
  0
BLOCK
  8
0
  2
グループ-13
 70
     0
 10
0.0
 20
0.0
 30
0.0
  0
LINE
  5
10C
  8
0
  6
CONTINUOUS
 62
   253
 10
5059.961804650511
 20
1181.017340526145
 30
0.0
 11
7805.632312736586
 21
1181.017340526145
 31
0.0
  0
LINE
  5
10D
  8
0
  6
CONTINUOUS
 62
   253
 10
7805.632312736586
 20
1181.017340526145
 30
0.0
 11
7805.632312736586
 21
-1448.704376886438
 31
0.0
  0
LINE
  5
10E
  8
0
  6
CONTINUOUS
 62
   253
 10
7805.632312736586
 20
-1448.704376886438
 30
0.0
 11
5078.534506670276
 21
-1448.704376886438
 31
0.0
  0
LINE
  5
10F
  8
0
  6
CONTINUOUS
 62
   253
 10
5059.961804650511
 20
-1448.704376886438
 30
0.0
 11
5059.961804650511
 21
1181.017340526145
 31
0.0
  0
LINE
  5
110
  8
0
  6
CONTINUOUS
 62
   253
 10
5059.961804650511
 20
-133.8435181801429
 30
0.0
 11
7805.632312736586
 21
-133.8435181801429
 31
0.0
  0
LINE
  5
111
  8
0
  6
CONTINUOUS
 62
   253
 10
6451.369760713314
 20
-1448.704376886438
 30
0.0
 11
6451.369760713314
 21
1181.017340526145
 31
0.0
  0
ENDBLK
  8
0
  0
BLOCK
  8
0
  2
グループ-14
 70
     0
 10
0.0
 20
0.0
 30
0.0
  0
INSERT
  5
112
  8
0
 62
   253
  2
グループ-11
 10
0.0
 20
0.0
 30
0.0
  0
INSERT
  5
113
  8
0
 62
   253
  2
グループ-12
 10
0.0
 20
0.0
 30
0.0
  0
INSERT
  5
114
  8
0
 62
   253
  2
グループ-13
 10
0.0
 20
0.0
 30
0.0
  0
ENDBLK
  8
0
  0
BLOCK
  8
0
  2
グループ-15
 70
     0
 10
0.0
 20
0.0
 30
0.0
  0
LINE
  5
115
  8
0
  6
CONTINUOUS
 62
   253
 10
-1734.858321997369
 20
-2062.202911393926
 30
0.0
 11
1010.8121860887
 21
-2062.202911393926
 31
0.0
  0
LINE
  5
116
  8
0
  6
CONTINUOUS
 62
   253
 10
1010.8121860887
 20
-2062.202911393926
 30
0.0
 11
1010.8121860887
 21
-4737.202911393953
 31
0.0
  0
LINE
  5
117
  8
0
  6
CONTINUOUS
 62
   253
 10
1010.8121860887
 20
-4737.202911393953
 30
0.0
 11
-1716.285619977603
 21
-4737.202911393953
 31
0.0
  0
LINE
  5
118
  8
0
  6
CONTINUOUS
 62
   253
 10
-1734.858321997369
 20
-4737.202911393953
 30
0.0
 11
-1734.858321997369
 21
-2062.202911393926
 31
0.0
  0
LINE
  5
119
  8
0
  6
CONTINUOUS
 62
   253
 10
-1734.858321997369
 20
-3399.70291139395
 30
0.0
 11
1010.8121860887
 21
-3399.70291139395
 31
0.0
  0
LINE
  5
11A
  8
0
  6
CONTINUOUS
 62
   253
 10
-343.4503659345741
 20
-4737.202911393953
 30
0.0
 11
-343.4503659345741
 21
-2062.202911393926
 31
0.0
  0
ENDBLK
  8
0
  0
BLOCK
  8
0
  2
グループ-16
 70
     0
 10
0.0
 20
0.0
 30
0.0
  0
LINE
  5
11B
  8
0
  6
CONTINUOUS
 62
   253
 10
1614.028183352241
 20
-2081.523997474529
 30
0.0
 11
4359.698691438321
 21
-2081.523997474529
 31
0.0
  0
LINE
  5
11C
  8
0
  6
CONTINUOUS
 62
   253
 10
4359.698691438321
 20
-2081.523997474529
 30
0.0
 11
4359.698691438321
 21
-4711.245714887142
 31
0.0
  0
LINE
  5
11D
  8
0
  6
CONTINUOUS
 62
   253
 10
4359.698691438321
 20
-4711.245714887142
 30
0.0
 11
1632.600885372008
 21
-4711.245714887142
 31
0.0
  0
LINE
  5
11E
  8
0
  6
CONTINUOUS
 62
   253
 10
1614.028183352241
 20
-4711.245714887142
 30
0.0
 11
1614.028183352241
 21
-2081.523997474529
 31
0.0
  0
LINE
  5
11F
  8
0
  6
CONTINUOUS
 62
   253
 10
1614.028183352241
 20
-3396.384856180846
 30
0.0
 11
4359.698691438321
 21
-3396.384856180846
 31
0.0
  0
LINE
  5
120
  8
0
  6
CONTINUOUS
 62
   253
 10
3005.436139415046
 20
-4711.245714887142
 30
0.0
 11
3005.436139415046
 21
-2081.523997474529
 31
0.0
  0
ENDBLK
  8
0
  0
BLOCK
  8
0
  2
グループ-17
 70
     0
 10
0.0
 20
0.0
 30
0.0
  0
LINE
  5
121
  8
0
  6
CONTINUOUS
 62
   253
 10
5066.717206772812
 20
-2103.124632191615
 30
0.0
 11
7812.387714858895
 21
-2103.124632191615
 31
0.0
  0
LINE
  5
122
  8
0
  6
CONTINUOUS
 62
   253
 10
7812.387714858895
 20
-2103.124632191615
 30
0.0
 11
7812.387714858895
 21
-4732.84634960423
 31
0.0
  0
LINE
  5
123
  8
0
  6
CONTINUOUS
 62
   253
 10
7812.387714858895
 20
-4732.84634960423
 30
0.0
 11
5085.289908792578
 21
-4732.84634960423
 31
0.0
  0
LINE
  5
124
  8
0
  6
CONTINUOUS
 62
   253
 10
5066.717206772812
 20
-4732.84634960423
 30
0.0
 11
5066.717206772812
 21
-2103.124632191615
 31
0.0
  0
LINE
  5
125
  8
0
  6
CONTINUOUS
 62
   253
 10
5066.717206772812
 20
-3417.985490897931
 30
0.0
 11
7812.387714858895
 21
-3417.985490897931
 31
0.0
  0
LINE
  5
126
  8
0
  6
CONTINUOUS
 62
   253
 10
6458.125162835609
 20
-4732.84634960423
 30
0.0
 11
6458.125162835609
 21
-2103.124632191615
 31
0.0
  0
ENDBLK
  8
0
  0
BLOCK
  8
0
  2
グループ-18
 70
     0
 10
0.0
 20
0.0
 30
0.0
  0
INSERT
  5
127
  8
0
 62
   253
  2
グループ-15
 10
0.0
 20
0.0
 30
0.0
  0
INSERT
  5
128
  8
0
 62
   253
  2
グループ-16
 10
0.0
 20
0.0
 30
0.0
  0
INSERT
  5
129
  8
0
 62
   253
  2
グループ-17
 10
0.0
 20
0.0
 30
0.0
  0
ENDBLK
  8
0
  0
BLOCK
  8
0
  2
グループ-19
 70
     0
 10
0.0
 20
0.0
 30
0.0
  0
LINE
  5
12A
  8
0
  6
CONTINUOUS
 62
   253
 10
-1769.307951294383
 20
-5346.209790065155
 30
0.0
 11
1020.692048705609
 21
-5346.209790065155
 31
0.0
  0
LINE
  5
12B
  8
0
  6
CONTINUOUS
 62
   253
 10
-1769.307951294383
 20
-6818.742569135115
 30
0.0
 11
1020.692048705609
 21
-6818.742569135115
 31
0.0
  0
LINE
  5
12C
  8
0
  6
CONTINUOUS
 62
   253
 10
-1769.307951294383
 20
-5346.209790065155
 30
0.0
 11
-1769.307951294383
 21
-6786.209790065155
 31
0.0
  0
LINE
  5
12D
  8
0
  6
CONTINUOUS
 62
   253
 10
1013.151410515
 20
-5346.209790065155
 30
0.0
 11
1013.151410515
 21
-6824.372049324591
 31
0.0
  0
LINE
  5
12E
  8
0
  6
CONTINUOUS
 62
   253
 10
-1769.307951294383
 20
-6045.701353569841
 30
0.0
 11
1020.692048705609
 21
-6045.701353569841
 31
0.0
  0
LINE
  5
12F
  8
0
  6
CONTINUOUS
 62
   253
 10
-320.6434455669745
 20
-6818.742569135115
 30
0.0
 11
-320.6434455669745
 21
-5346.209790065155
 31
0.0
  0
ENDBLK
  8
0
  0
BLOCK
  8
0
  2
グループ-20
 70
     0
 10
0.0
 20
0.0
 30
0.0
  0
LINE
  5
130
  8
0
  6
CONTINUOUS
 62
   253
 10
1654.49737144715
 20
-5346.209790065155
 30
0.0
 11
4444.497371447151
 21
-5346.209790065155
 31
0.0
  0
LINE
  5
131
  8
0
  6
CONTINUOUS
 62
   253
 10
1654.49737144715
 20
-6818.742569135115
 30
0.0
 11
4444.497371447151
 21
-6818.742569135115
 31
0.0
  0
LINE
  5
132
  8
0
  6
CONTINUOUS
 62
   253
 10
1654.49737144715
 20
-5346.209790065155
 30
0.0
 11
1654.49737144715
 21
-6824.372049324591
 31
0.0
  0
LINE
  5
133
  8
0
  6
CONTINUOUS
 62
   253
 10
4442.700215738815
 20
-5346.209790065155
 30
0.0
 11
4442.700215738815
 21
-6824.372049324591
 31
0.0
  0
LINE
  5
134
  8
0
  6
CONTINUOUS
 62
   253
 10
1654.49737144715
 20
-6045.701353569841
 30
0.0
 11
4444.497371447151
 21
-6045.701353569841
 31
0.0
  0
ENDBLK
  8
0
  0
BLOCK
  8
0
  2
グループ-21
 70
     0
 10
0.0
 20
0.0
 30
0.0
  0
LINE
  5
135
  8
0
  6
CONTINUOUS
 62
   253
 10
5049.337430990405
 20
-5359.904287130026
 30
0.0
 11
7839.337430990389
 21
-5359.904287130026
 31
0.0
  0
LINE
  5
136
  8
0
  6
CONTINUOUS
 62
   253
 10
5049.337430990405
 20
-6832.437066199984
 30
0.0
 11
7839.337430990389
 21
-6832.437066199984
 31
0.0
  0
LINE
  5
137
  8
0
  6
CONTINUOUS
 62
   253
 10
5049.337430990405
 20
-5359.904287130026
 30
0.0
 11
5049.337430990405
 21
-6799.904287130026
 31
0.0
  0
LINE
  5
138
  8
0
  6
CONTINUOUS
 62
   253
 10
7831.796792799781
 20
-5359.904287130026
 30
0.0
 11
7831.796792799781
 21
-6838.066546389462
 31
0.0
  0
LINE
  5
139
  8
0
  6
CONTINUOUS
 62
   253
 10
5049.337430990405
 20
-6059.395850634713
 30
0.0
 11
7839.337430990389
 21
-6059.395850634713
 31
0.0
  0
LINE
  5
13A
  8
0
  6
CONTINUOUS
 62
   253
 10
6498.001936717808
 20
-6832.437066199984
 30
0.0
 11
6498.001936717808
 21
-5359.904287130026
 31
0.0
  0
ENDBLK
  8
0
  0
BLOCK
  8
0
  2
*U23
 70
     1
 10
0.0
 20
0.0
 30
0.0
  0
SOLID
  5
53C
  8
一般
  6
CONTINUOUS
 62
   254
 10
20744.14247571385
 20
21999.26924170338
 30
0.0
 11
20744.14247571385
 21
25493.26924170338
 31
0.0
 12
24736.14247571388
 22
21999.26924170338
 32
0.0
 13
24736.14247571388
 23
21999.26924170338
 33
0.0
  0
SOLID
  5
53D
  8
一般
  6
CONTINUOUS
 62
   254
 10
24736.14247571388
 20
21999.26924170338
 30
0.0
 11
20744.14247571385
 21
25493.26924170338
 31
0.0
 12
24736.14247571388
 22
25493.26924170338
 32
0.0
 13
24736.14247571388
 23
25493.26924170338
 33
0.0
  0
ENDBLK
  8
0
  0
BLOCK
  8
0
  2
*U24
 70
     1
 10
0.0
 20
0.0
 30
0.0
  0
SOLID
  5
53F
  8
一般
  6
CONTINUOUS
 62
   254
 10
17166.98565908847
 20
22038.78748785436
 30
0.0
 11
17166.98565908847
 21
25532.78748785435
 31
0.0
 12
20662.98565908847
 22
22038.78748785436
 32
0.0
 13
20662.98565908847
 23
22038.78748785436
 33
0.0
  0
SOLID
  5
540
  8
一般
  6
CONTINUOUS
 62
   254
 10
20662.98565908847
 20
22038.78748785436
 30
0.0
 11
17166.98565908847
 21
25532.78748785435
 31
0.0
 12
20662.98565908847
 22
25532.78748785435
 32
0.0
 13
20662.98565908847
 23
25532.78748785435
 33
0.0
  0
ENDBLK
  8
0
  0
BLOCK
  8
0
  2
*U25
 70
     1
 10
0.0
 20
0.0
 30
0.0
  0
SOLID
  5
542
  8
一般
  6
CONTINUOUS
 62
   254
 10
24777.78104618828
 20
21999.26924170338
 30
0.0
 11
24777.78104618828
 21
25493.26924170338
 31
0.0
 12
28273.78104618828
 22
21999.26924170338
 32
0.0
 13
28273.78104618828
 23
21999.26924170338
 33
0.0
  0
SOLID
  5
543
  8
一般
  6
CONTINUOUS
 62
   254
 10
28273.78104618828
 20
21999.26924170338
 30
0.0
 11
24777.78104618828
 21
25493.26924170338
 31
0.0
 12
28273.78104618828
 22
25493.26924170338
 32
0.0
 13
28273.78104618828
 23
25493.26924170338
 33
0.0
  0
ENDBLK
  8
0
  0
BLOCK
  8
0
  2
*U26
 70
     1
 10
0.0
 20
0.0
 30
0.0
  0
SOLID
  5
545
  8
一般
  6
CONTINUOUS
 62
   254
 10
20744.14247571385
 20
18465.5816435872
 30
0.0
 11
20744.14247571385
 21
21959.5816435872
 31
0.0
 12
24736.14247571388
 22
18465.5816435872
 32
0.0
 13
24736.14247571388
 23
18465.5816435872
 33
0.0
  0
SOLID
  5
546
  8
一般
  6
CONTINUOUS
 62
   254
 10
24736.14247571388
 20
18465.5816435872
 30
0.0
 11
20744.14247571385
 21
21959.5816435872
 31
0.0
 12
24736.14247571388
 22
21959.5816435872
 32
0.0
 13
24736.14247571388
 23
21959.5816435872
 33
0.0
  0
ENDBLK
  8
0
  0
BLOCK
  8
0
  2
*U27
 70
     1
 10
0.0
 20
0.0
 30
0.0
  0
SOLID
  5
548
  8
一般
  6
CONTINUOUS
 62
   254
 10
17166.98565908847
 20
18465.5816435872
 30
0.0
 11
17166.98565908847
 21
21959.5816435872
 31
0.0
 12
20662.98565908847
 22
18465.5816435872
 32
0.0
 13
20662.98565908847
 23
18465.5816435872
 33
0.0
  0
SOLID
  5
549
  8
一般
  6
CONTINUOUS
 62
   254
 10
20662.98565908847
 20
18465.5816435872
 30
0.0
 11
17166.98565908847
 21
21959.5816435872
 31
0.0
 12
20662.98565908847
 22
21959.5816435872
 32
0.0
 13
20662.98565908847
 23
21959.5816435872
 33
0.0
  0
ENDBLK
  8
0
  0
BLOCK
  8
0
  2
*U28
 70
     1
 10
0.0
 20
0.0
 30
0.0
  0
SOLID
  5
54B
  8
一般
  6
CONTINUOUS
 62
   254
 10
24777.78104618828
 20
18465.5816435872
 30
0.0
 11
24777.78104618828
 21
21959.5816435872
 31
0.0
 12
28273.78104618828
 22
18465.5816435872
 32
0.0
 13
28273.78104618828
 23
18465.5816435872
 33
0.0
  0
SOLID
  5
54C
  8
一般
  6
CONTINUOUS
 62
   254
 10
28273.78104618828
 20
18465.5816435872
 30
0.0
 11
24777.78104618828
 21
21959.5816435872
 31
0.0
 12
28273.78104618828
 22
21959.5816435872
 32
0.0
 13
28273.78104618828
 23
21959.5816435872
 33
0.0
  0
ENDBLK
  8
0
  0
BLOCK
  8
0
  2
*U29
 70
     1
 10
0.0
 20
0.0
 30
0.0
  0
SOLID
  5
54E
  8
一般
  6
CONTINUOUS
 62
   254
 10
20720.81364845646
 20
14910.2026569862
 30
0.0
 11
20720.81364845646
 21
18404.20265698621
 31
0.0
 12
24712.81364845648
 22
14910.2026569862
 32
0.0
 13
24712.81364845648
 23
14910.2026569862
 33
0.0
  0
SOLID
  5
54F
  8
一般
  6
CONTINUOUS
 62
   254
 10
24712.81364845648
 20
14910.2026569862
 30
0.0
 11
20720.81364845646
 21
18404.20265698621
 31
0.0
 12
24712.81364845648
 22
18404.20265698621
 32
0.0
 13
24712.81364845648
 23
18404.20265698621
 33
0.0
  0
ENDBLK
  8
0
  0
BLOCK
  8
0
  2
*U30
 70
     1
 10
0.0
 20
0.0
 30
0.0
  0
SOLID
  5
551
  8
一般
  6
CONTINUOUS
 62
   254
 10
20728.21902086183
 20
11341.0177150971
 30
0.0
 11
20728.21902086183
 21
14835.01771509711
 31
0.0
 12
24720.21902086186
 22
11341.0177150971
 32
0.0
 13
24720.21902086186
 23
11341.0177150971
 33
0.0
  0
SOLID
  5
552
  8
一般
  6
CONTINUOUS
 62
   254
 10
24720.21902086186
 20
11341.0177150971
 30
0.0
 11
20728.21902086183
 21
14835.01771509711
 31
0.0
 12
24720.21902086186
 22
14835.01771509711
 32
0.0
 13
24720.21902086186
 23
14835.01771509711
 33
0.0
  0
ENDBLK
  8
0
  0
BLOCK
  8
0
  2
*X31
 70
     1
 10
0.0
 20
0.0
 30
0.0
  0
TEXT
  5
600
  8
VENUE
  6
CONTINUOUS
 62
     7
 10
16334.62288598239
 20
-6180.46179040498
 30
0.0
 40
285.8575701156615
  1
ホール
  7
OSAKA
  0
TEXT
  5
601
  8
VENUE
  6
CONTINUOUS
 62
     7
 10
16334.62288598239
 20
-6554.372384177574
 30
0.0
 40
285.8575701156615
  1
事務所
  7
OSAKA
  0
ENDBLK
  8
0
  0
BLOCK
  8
0
  2
*X32
 70
     1
 10
0.0
 20
0.0
 30
0.0
  0
TEXT
  5
745
  8
0
  6
CONTINUOUS
 62
     7
 10
848.3239279602237
 20
-3153.388888888888
 30
0.0
 40
270.7845052083333
  1
主催者
  7
ＭＳ_ゴシック
  0
TEXT
  5
746
  8
0
  6
CONTINUOUS
 62
     7
 10
964.3744301923666
 20
-3507.583444890673
 30
0.0
 40
270.7845052083333
  1
控室
  7
ＭＳ_ゴシック
  0
ENDBLK
  8
0
  0
BLOCK
  8
0
  2
*X33
 70
     1
 10
0.0
 20
0.0
 30
0.0
  0
TEXT
  5
74E
  8
VENUE
  6
CONTINUOUS
 62
     7
 10
-1600.000000000004
 20
37741.52777777777
 30
0.0
 40
676.9612630208333
  1
〒810-0004
  7
OSAKA
  0
TEXT
  5
74F
  8
VENUE
  6
CONTINUOUS
 62
     7
 10
-1600.000000000004
 20
36856.04138777331
 30
0.0
 40
676.9612630208333
  1
福岡県福岡市渡辺通り4-8-28
  7
OSAKA
  0
TEXT
  5
750
  8
VENUE
  6
CONTINUOUS
 62
     7
 10
-1600.000000000004
 20
35970.55499776884
 30
0.0
 40
676.9612630208333
  1
F.TビルB2
  7
OSAKA
  0
TEXT
  5
751
  8
VENUE
  6
CONTINUOUS
 62
     7
 10
-1600.000000000004
 20
34956.12360528422
 30
0.0
 40
676.9612630208333
  1
TEL/092-712-8833
  7
OSAKA
  0
TEXT
  5
752
  8
VENUE
  6
CONTINUOUS
 62
     7
 10
-1600.000000000004
 20
33969.43877070782
 30
0.0
 40
676.9612630208333
  1
FAX/092-711-1007
  7
OSAKA
  0
ENDBLK
  8
0
  0
BLOCK
  8
0
  2
*X34
 70
     1
 10
0.0
 20
0.0
 30
0.0
  0
TEXT
  5
754
  8
0
  6
CONTINUOUS
 62
     7
 10
26374.57674526222
 20
30130.51037236942
 30
0.0
 40
676.9612630208333
  1
18.5
  7
FELIX_TITLING
  0
TEXT
  5
755
  8
0
  6
CONTINUOUS
 62
     7
 10
28502.16928618484
 20
30130.51037236942
 30
0.0
 40
676.9612630208333
  1
坪
  0
ENDBLK
  8
0
  0
BLOCK
  8
0
  2
*X35
 70
     1
 10
0.0
 20
0.0
 30
0.0
  0
TEXT
  5
757
  8
0
  6
CONTINUOUS
 62
     7
 10
34425.0575544276
 20
19187.70723075847
 30
0.0
 40
812.3535156249999
  1
45
  7
FELIX_TITLING
  0
TEXT
  5
758
  8
0
  6
CONTINUOUS
 62
     7
 10
35972.3975841895
 20
19187.70723075847
 30
0.0
 40
812.3535156249999
  1
㎡
  0
ENDBLK
  8
0
  0
BLOCK
  8
0
  2
*X36
 70
     1
 10
0.0
 20
0.0
 30
0.0
  0
TEXT
  5
75A
  8
0
  6
CONTINUOUS
 62
     7
 10
34539.98728377705
 20
17982.959266907
 30
0.0
 40
676.9612630208333
  1
13.6
  7
FELIX_TITLING
  0
TEXT
  5
75B
  8
0
  6
CONTINUOUS
 62
     7
 10
36667.57982469967
 20
17982.959266907
 30
0.0
 40
676.9612630208333
  1
坪
  0
ENDBLK
  8
0
  0
BLOCK
  8
0
  2
*X37
 70
     1
 10
0.0
 20
0.0
 30
0.0
  0
TEXT
  5
75D
  8
0
  6
CONTINUOUS
 62
     7
 10
10476.31392954568
 20
352.9907731942556
 30
0.0
 40
676.9612630208333
  1
82
  7
FELIX_TITLING
  0
TEXT
  5
75E
  8
0
  6
CONTINUOUS
 62
     7
 10
11765.76395434727
 20
352.9907731942556
 30
0.0
 40
676.9612630208333
  1
坪
  0
ENDBLK
  8
0
  0
BLOCK
  8
0
  2
*X38
 70
     1
 10
0.0
 20
0.0
 30
0.0
  0
TEXT
  5
760
  8
0
  6
CONTINUOUS
 62
     7
 10
21100.13231204421
 20
6086.002584069066
 30
0.0
 40
812.3535156249999
  1
293
  7
FELIX_TITLING
  0
TEXT
  5
761
  8
0
  6
CONTINUOUS
 62
     7
 10
23421.14235668707
 20
6086.002584069066
 30
0.0
 40
812.3535156249999
  1
㎡
  0
ENDBLK
  8
0
  0
ENDSEC
  0
SECTION
  2
ENTITIES
  0
INSERT
  5
13B
  8
一般
  6
CONTINUOUS
 62
   254
  2
*U23
 10
0.0
 20
0.0
 30
0.0
  0
POLYLINE
  5
13C
  8
一般
  6
CONTINUOUS
 62
     7
 66
     1
 10
0.0
 20
0.0
 30
0.0
 70
   129
  0
VERTEX
  5
13D
  8
一般
  6
CONTINUOUS
 62
     7
 10
20744.14247571385
 20
25493.26924170338
 30
0.0
  0
VERTEX
  5
13E
  8
一般
  6
CONTINUOUS
 62
     7
 10
24736.14247571388
 20
25493.26924170338
 30
0.0
  0
VERTEX
  5
13F
  8
一般
  6
CONTINUOUS
 62
     7
 10
24736.14247571388
 20
21999.26924170338
 30
0.0
  0
VERTEX
  5
140
  8
一般
  6
CONTINUOUS
 62
     7
 10
20744.14247571385
 20
21999.26924170338
 30
0.0
  0
SEQEND
  5
141
  8
一般
  6
CONTINUOUS
 62
     7
  0
INSERT
  5
142
  8
一般
  6
CONTINUOUS
 62
   254
  2
*U24
 10
0.0
 20
0.0
 30
0.0
  0
POLYLINE
  5
143
  8
一般
  6
CONTINUOUS
 62
     7
 66
     1
 10
0.0
 20
0.0
 30
0.0
 70
   129
  0
VERTEX
  5
144
  8
一般
  6
CONTINUOUS
 62
     7
 10
17166.98565908847
 20
25532.78748785435
 30
0.0
  0
VERTEX
  5
145
  8
一般
  6
CONTINUOUS
 62
     7
 10
20662.98565908847
 20
25532.78748785435
 30
0.0
  0
VERTEX
  5
146
  8
一般
  6
CONTINUOUS
 62
     7
 10
20662.98565908847
 20
22038.78748785436
 30
0.0
  0
VERTEX
  5
147
  8
一般
  6
CONTINUOUS
 62
     7
 10
17166.98565908847
 20
22038.78748785436
 30
0.0
  0
SEQEND
  5
148
  8
一般
  6
CONTINUOUS
 62
     7
  0
INSERT
  5
149
  8
一般
  6
CONTINUOUS
 62
   254
  2
*U25
 10
0.0
 20
0.0
 30
0.0
  0
POLYLINE
  5
14A
  8
一般
  6
CONTINUOUS
 62
     7
 66
     1
 10
0.0
 20
0.0
 30
0.0
 70
   129
  0
VERTEX
  5
14B
  8
一般
  6
CONTINUOUS
 62
     7
 10
24777.78104618828
 20
25493.26924170338
 30
0.0
  0
VERTEX
  5
14C
  8
一般
  6
CONTINUOUS
 62
     7
 10
28273.78104618828
 20
25493.26924170338
 30
0.0
  0
VERTEX
  5
14D
  8
一般
  6
CONTINUOUS
 62
     7
 10
28273.78104618828
 20
21999.26924170338
 30
0.0
  0
VERTEX
  5
14E
  8
一般
  6
CONTINUOUS
 62
     7
 10
24777.78104618828
 20
21999.26924170338
 30
0.0
  0
SEQEND
  5
14F
  8
一般
  6
CONTINUOUS
 62
     7
  0
INSERT
  5
150
  8
一般
  6
CONTINUOUS
 62
   254
  2
*U26
 10
0.0
 20
0.0
 30
0.0
  0
POLYLINE
  5
151
  8
一般
  6
CONTINUOUS
 62
     7
 66
     1
 10
0.0
 20
0.0
 30
0.0
 70
   129
  0
VERTEX
  5
152
  8
一般
  6
CONTINUOUS
 62
     7
 10
20744.14247571385
 20
21959.5816435872
 30
0.0
  0
VERTEX
  5
153
  8
一般
  6
CONTINUOUS
 62
     7
 10
24736.14247571388
 20
21959.5816435872
 30
0.0
  0
VERTEX
  5
154
  8
一般
  6
CONTINUOUS
 62
     7
 10
24736.14247571388
 20
18465.5816435872
 30
0.0
  0
VERTEX
  5
155
  8
一般
  6
CONTINUOUS
 62
     7
 10
20744.14247571385
 20
18465.5816435872
 30
0.0
  0
SEQEND
  5
156
  8
一般
  6
CONTINUOUS
 62
     7
  0
INSERT
  5
157
  8
一般
  6
CONTINUOUS
 62
   254
  2
*U27
 10
0.0
 20
0.0
 30
0.0
  0
POLYLINE
  5
158
  8
一般
  6
CONTINUOUS
 62
     7
 66
     1
 10
0.0
 20
0.0
 30
0.0
 70
   129
  0
VERTEX
  5
159
  8
一般
  6
CONTINUOUS
 62
     7
 10
17166.98565908847
 20
21959.5816435872
 30
0.0
  0
VERTEX
  5
15A
  8
一般
  6
CONTINUOUS
 62
     7
 10
20662.98565908847
 20
21959.5816435872
 30
0.0
  0
VERTEX
  5
15B
  8
一般
  6
CONTINUOUS
 62
     7
 10
20662.98565908847
 20
18465.5816435872
 30
0.0
  0
VERTEX
  5
15C
  8
一般
  6
CONTINUOUS
 62
     7
 10
17166.98565908847
 20
18465.5816435872
 30
0.0
  0
SEQEND
  5
15D
  8
一般
  6
CONTINUOUS
 62
     7
  0
INSERT
  5
15E
  8
一般
  6
CONTINUOUS
 62
   254
  2
*U28
 10
0.0
 20
0.0
 30
0.0
  0
POLYLINE
  5
15F
  8
一般
  6
CONTINUOUS
 62
     7
 66
     1
 10
0.0
 20
0.0
 30
0.0
 70
   129
  0
VERTEX
  5
160
  8
一般
  6
CONTINUOUS
 62
     7
 10
24777.78104618828
 20
21959.5816435872
 30
0.0
  0
VERTEX
  5
161
  8
一般
  6
CONTINUOUS
 62
     7
 10
28273.78104618828
 20
21959.5816435872
 30
0.0
  0
VERTEX
  5
162
  8
一般
  6
CONTINUOUS
 62
     7
 10
28273.78104618828
 20
18465.5816435872
 30
0.0
  0
VERTEX
  5
163
  8
一般
  6
CONTINUOUS
 62
     7
 10
24777.78104618828
 20
18465.5816435872
 30
0.0
  0
SEQEND
  5
164
  8
一般
  6
CONTINUOUS
 62
     7
  0
INSERT
  5
165
  8
一般
  6
CONTINUOUS
 62
   254
  2
*U29
 10
0.0
 20
0.0
 30
0.0
  0
POLYLINE
  5
166
  8
一般
  6
CONTINUOUS
 62
     7
 66
     1
 10
0.0
 20
0.0
 30
0.0
 70
   129
  0
VERTEX
  5
167
  8
一般
  6
CONTINUOUS
 62
     7
 10
20720.81364845646
 20
18404.20265698621
 30
0.0
  0
VERTEX
  5
168
  8
一般
  6
CONTINUOUS
 62
     7
 10
24712.81364845648
 20
18404.20265698621
 30
0.0
  0
VERTEX
  5
169
  8
一般
  6
CONTINUOUS
 62
     7
 10
24712.81364845648
 20
14910.2026569862
 30
0.0
  0
VERTEX
  5
16A
  8
一般
  6
CONTINUOUS
 62
     7
 10
20720.81364845646
 20
14910.2026569862
 30
0.0
  0
SEQEND
  5
16B
  8
一般
  6
CONTINUOUS
 62
     7
  0
INSERT
  5
16C
  8
一般
  6
CONTINUOUS
 62
   254
  2
*U30
 10
0.0
 20
0.0
 30
0.0
  0
POLYLINE
  5
16D
  8
一般
  6
CONTINUOUS
 62
     7
 66
     1
 10
0.0
 20
0.0
 30
0.0
 70
   129
  0
VERTEX
  5
16E
  8
一般
  6
CONTINUOUS
 62
     7
 10
20728.21902086183
 20
14835.01771509711
 30
0.0
  0
VERTEX
  5
16F
  8
一般
  6
CONTINUOUS
 62
     7
 10
24720.21902086186
 20
14835.01771509711
 30
0.0
  0
VERTEX
  5
170
  8
一般
  6
CONTINUOUS
 62
     7
 10
24720.21902086186
 20
11341.0177150971
 30
0.0
  0
VERTEX
  5
171
  8
一般
  6
CONTINUOUS
 62
     7
 10
20728.21902086183
 20
11341.0177150971
 30
0.0
  0
SEQEND
  5
172
  8
一般
  6
CONTINUOUS
 62
     7
  0
LINE
  5
173
  8
VENUE
  6
CONTINUOUS
 62
     7
 10
-4259.095114017611
 20
-5044.170790404984
 30
0.0
 11
2240.904885982389
 21
-5044.170790404984
 31
0.0
  0
LINE
  5
174
  8
VENUE
  6
CONTINUOUS
 62
     7
 10
19506.90488598239
 20
-2794.170790404982
 30
0.0
 11
19506.90488598239
 21
-8294.170790404984
 31
0.0
  0
LINE
  5
175
  8
VENUE
  6
CONTINUOUS
 62
     7
 10
30524.90488598239
 20
28118.82920959502
 30
0.0
 11
30524.90488598239
 21
20118.82920959502
 31
0.0
  0
LINE
  5
176
  8
VENUE
  6
CONTINUOUS
 62
     7
 10
14940.90488598239
 20
27374.9238734479
 30
0.0
 11
14940.90488598239
 21
20118.82920959502
 31
0.0
  0
LINE
  5
177
  8
VENUE
  6
CONTINUOUS
 62
     7
 10
16240.90488598239
 20
24668.82920959502
 30
0.0
 11
16240.90488598239
 21
23268.82920959502
 31
0.0
  0
LINE
  5
178
  8
VENUE
  6
CONTINUOUS
 62
     7
 10
29224.90488598239
 20
24655.82920959502
 30
0.0
 11
29224.90488598239
 21
23305.82920959502
 31
0.0
  0
LINE
  5
179
  8
VENUE
  6
CONTINUOUS
 62
     7
 10
15740.90488598239
 20
26068.82920959502
 30
0.0
 11
15240.90488598239
 21
26068.82920959502
 31
0.0
  0
LINE
  5
17A
  8
VENUE
  6
CONTINUOUS
 62
     7
 10
15240.90488598239
 20
23268.82920959502
 30
0.0
 11
15240.90488598239
 21
20368.82920959502
 31
0.0
  0
LINE
  5
17B
  8
VENUE
  6
CONTINUOUS
 62
     7
 10
15940.90488598239
 20
23268.82920959502
 30
0.0
 11
15940.90488598239
 21
20368.82920959502
 31
0.0
  0
LINE
  5
17C
  8
VENUE
  6
CONTINUOUS
 62
     7
 10
16140.90488598239
 20
23268.82920959502
 30
0.0
 11
16140.90488598239
 21
20168.82920959502
 31
0.0
  0
LINE
  5
17D
  8
VENUE
  6
CONTINUOUS
 62
     7
 10
15740.90488598239
 20
27168.82920959502
 30
0.0
 11
15740.90488598239
 21
26068.82920959502
 31
0.0
  0
LINE
  5
17E
  8
VENUE
  6
CONTINUOUS
 62
     7
 10
17540.90488598239
 20
27468.82920959502
 30
0.0
 11
22382.90488598239
 21
27468.82920959502
 31
0.0
  0
LINE
  5
17F
  8
VENUE
  6
CONTINUOUS
 62
     7
 10
17540.90488598239
 20
27168.82920959502
 30
0.0
 11
22382.90488598239
 21
27168.82920959502
 31
0.0
  0
LINE
  5
180
  8
VENUE
  6
CONTINUOUS
 62
     7
 10
15940.90488598239
 20
27168.82920959502
 30
0.0
 11
15740.90488598239
 21
27168.82920959502
 31
0.0
  0
LINE
  5
181
  8
VENUE
  6
CONTINUOUS
 62
     7
 10
15940.90488598239
 20
27168.82920959502
 30
0.0
 11
15940.90488598239
 21
24668.82920959502
 31
0.0
  0
LINE
  5
182
  8
VENUE
  6
CONTINUOUS
 62
     7
 10
16140.90488598239
 20
27168.82920959502
 30
0.0
 11
16140.90488598239
 21
24668.82920959502
 31
0.0
  0
LINE
  5
183
  8
VENUE
  6
CONTINUOUS
 62
     7
 10
16140.90488598239
 20
20168.82920959502
 30
0.0
 11
15240.90488598239
 21
20168.82920959502
 31
0.0
  0
LINE
  5
184
  8
VENUE
  6
CONTINUOUS
 62
     7
 10
15940.90488598239
 20
20368.82920959502
 30
0.0
 11
15240.90488598239
 21
20368.82920959502
 31
0.0
  0
LINE
  5
185
  8
VENUE
  6
CONTINUOUS
 62
     7
 10
14940.90488598239
 20
20118.82920959502
 30
0.0
 11
15240.90488598239
 21
20118.82920959502
 31
0.0
  0
LINE
  5
186
  8
VENUE
  6
CONTINUOUS
 62
     7
 10
15240.90488598239
 20
20118.82920959502
 30
0.0
 11
15240.90488598239
 21
20168.82920959502
 31
0.0
  0
LINE
  5
187
  8
VENUE
  6
CONTINUOUS
 62
     7
 10
15940.90488598239
 20
24668.82920959502
 30
0.0
 11
15240.90488598239
 21
24668.82920959502
 31
0.0
  0
LINE
  5
188
  8
VENUE
  6
CONTINUOUS
 62
     7
 10
16240.90488598239
 20
23268.82920959502
 30
0.0
 11
16140.90488598239
 21
23268.82920959502
 31
0.0
  0
LINE
  5
189
  8
VENUE
  6
CONTINUOUS
 62
     7
 10
15940.90488598239
 20
23268.82920959502
 30
0.0
 11
15240.90488598239
 21
23268.82920959502
 31
0.0
  0
LINE
  5
18A
  8
VENUE
  6
CONTINUOUS
 62
     7
 10
16140.90488598239
 20
24668.82920959502
 30
0.0
 11
16240.90488598239
 21
24668.82920959502
 31
0.0
  0
LINE
  5
18B
  8
VENUE
  6
CONTINUOUS
 62
     7
 10
15240.90488598239
 20
24668.82920959502
 30
0.0
 11
15240.90488598239
 21
26068.82920959502
 31
0.0
  0
LINE
  5
18C
  8
VENUE
  6
CONTINUOUS
 62
     7
 10
28824.90488598239
 20
27468.82920959502
 30
0.0
 11
29374.90488598239
 21
27468.82920959502
 31
0.0
  0
LINE
  5
18D
  8
VENUE
  6
CONTINUOUS
 62
     7
 10
30224.90488598239
 20
26918.82920959502
 30
0.0
 11
30224.90488598239
 21
24655.82920959502
 31
0.0
  0
LINE
  5
18E
  8
VENUE
  6
CONTINUOUS
 62
     7
 10
28824.90488598239
 20
27168.82920959502
 30
0.0
 11
29374.90488598239
 21
27168.82920959502
 31
0.0
  0
LINE
  5
18F
  8
VENUE
  6
CONTINUOUS
 62
     7
 10
29574.90488598239
 20
26918.82920959502
 30
0.0
 11
29574.90488598239
 21
24655.82920959502
 31
0.0
  0
LINE
  5
190
  8
VENUE
  6
CONTINUOUS
 62
     7
 10
29374.90488598239
 20
27168.82920959502
 30
0.0
 11
29374.90488598239
 21
24655.82920959502
 31
0.0
  0
LINE
  5
191
  8
VENUE
  6
CONTINUOUS
 62
     7
 10
28824.90488598239
 20
27468.82920959502
 30
0.0
 11
28824.90488598239
 21
27168.82920959502
 31
0.0
  0
LINE
  5
192
  8
VENUE
  6
CONTINUOUS
 62
     7
 10
29374.90488598239
 20
27468.82920959502
 30
0.0
 11
29374.90488598239
 21
27718.82920959502
 31
0.0
  0
LINE
  5
193
  8
VENUE
  6
CONTINUOUS
 62
     7
 10
29374.90488598239
 20
27718.82920959502
 30
0.0
 11
30274.90488598239
 21
27718.82920959502
 31
0.0
  0
LINE
  5
194
  8
VENUE
  6
CONTINUOUS
 62
     7
 10
30274.90488598239
 20
27718.82920959502
 30
0.0
 11
30274.90488598239
 21
28118.82920959502
 31
0.0
  0
LINE
  5
195
  8
VENUE
  6
CONTINUOUS
 62
     7
 10
30224.90488598239
 20
28118.82920959502
 30
0.0
 11
30524.90488598239
 21
28118.82920959502
 31
0.0
  0
LINE
  5
196
  8
VENUE
  6
CONTINUOUS
 62
     7
 10
29574.90488598239
 20
26918.82920959502
 30
0.0
 11
30224.90488598239
 21
26918.82920959502
 31
0.0
  0
LINE
  5
197
  8
VENUE
  6
CONTINUOUS
 62
     7
 10
29374.90488598239
 20
20168.82920959502
 30
0.0
 11
30224.90488598239
 21
20168.82920959502
 31
0.0
  0
LINE
  5
198
  8
VENUE
  6
CONTINUOUS
 62
     7
 10
30524.90488598239
 20
20118.82920959502
 30
0.0
 11
30224.90488598239
 21
20118.82920959502
 31
0.0
  0
LINE
  5
199
  8
VENUE
  6
CONTINUOUS
 62
     7
 10
29574.90488598239
 20
20368.82920959502
 30
0.0
 11
30224.90488598239
 21
20368.82920959502
 31
0.0
  0
LINE
  5
19A
  8
VENUE
  6
CONTINUOUS
 62
     7
 10
30224.90488598239
 20
20118.82920959502
 30
0.0
 11
30224.90488598239
 21
20168.82920959502
 31
0.0
  0
LINE
  5
19B
  8
VENUE
  6
CONTINUOUS
 62
     7
 10
30224.90488598239
 20
20368.82920959502
 30
0.0
 11
30224.90488598239
 21
23305.82920959502
 31
0.0
  0
LINE
  5
19C
  8
VENUE
  6
CONTINUOUS
 62
     7
 10
29574.90488598239
 20
20368.82920959502
 30
0.0
 11
29574.90488598239
 21
23305.82920959502
 31
0.0
  0
LINE
  5
19D
  8
VENUE
  6
CONTINUOUS
 62
     7
 10
29374.90488598239
 20
20168.82920959502
 30
0.0
 11
29374.90488598239
 21
23305.82920959502
 31
0.0
  0
LINE
  5
19E
  8
VENUE
  6
CONTINUOUS
 62
     7
 10
28024.90488598239
 20
27468.82920959502
 30
0.0
 11
28024.90488598239
 21
27168.82920959502
 31
0.0
  0
LINE
  5
19F
  8
VENUE
  6
CONTINUOUS
 62
     7
 10
22382.90488598239
 20
27468.82920959502
 30
0.0
 11
22382.90488598239
 21
27718.82920959502
 31
0.0
  0
LINE
  5
1A0
  8
VENUE
  6
CONTINUOUS
 62
     7
 10
23182.90488598239
 20
26918.82920959502
 30
0.0
 11
23182.90488598239
 21
27168.82920959502
 31
0.0
  0
LINE
  5
1A1
  8
VENUE
  6
CONTINUOUS
 62
     7
 10
22382.90488598239
 20
26918.82920959502
 30
0.0
 11
23182.90488598239
 21
26918.82920959502
 31
0.0
  0
LINE
  5
1A2
  8
VENUE
  6
CONTINUOUS
 62
     7
 10
23182.90488598239
 20
27718.82920959502
 30
0.0
 11
22382.90488598239
 21
27718.82920959502
 31
0.0
  0
LINE
  5
1A3
  8
VENUE
  6
CONTINUOUS
 62
     7
 10
28024.90488598239
 20
27168.82920959502
 30
0.0
 11
23182.90488598239
 21
27168.82920959502
 31
0.0
  0
LINE
  5
1A4
  8
VENUE
  6
CONTINUOUS
 62
     7
 10
28024.90488598239
 20
27468.82920959502
 30
0.0
 11
23182.90488598239
 21
27468.82920959502
 31
0.0
  0
LINE
  5
1A5
  8
VENUE
  6
CONTINUOUS
 62
     7
 10
23182.90488598239
 20
27718.82920959502
 30
0.0
 11
23182.90488598239
 21
27468.82920959502
 31
0.0
  0
LINE
  5
1A6
  8
VENUE
  6
CONTINUOUS
 62
     7
 10
28824.90488598239
 20
27468.82920959502
 30
0.0
 11
28824.90488598239
 21
28268.82920959502
 31
0.0
  0
ARC
  5
1A7
  8
VENUE
  6
CONTINUOUS
 62
     7
 10
28824.90488598239
 20
27468.82920959502
 30
0.0
 40
800.0
 50
90.0
 51
180.0
  0
LINE
  5
1A8
  8
VENUE
  6
CONTINUOUS
 62
     7
 10
28824.90488598239
 20
27468.82920959502
 30
0.0
 11
28024.90488598239
 21
27468.82920959502
 31
0.0
  0
LINE
  5
1A9
  8
VENUE
  6
CONTINUOUS
 62
     7
 10
22382.90488598239
 20
27168.82920959502
 30
0.0
 11
22382.90488598239
 21
26918.82920959502
 31
0.0
  0
LINE
  5
1AA
  8
VENUE
  6
CONTINUOUS
 62
     7
 10
17540.90488598239
 20
27468.82920959502
 30
0.0
 11
17540.90488598239
 21
27168.82920959502
 31
0.0
  0
LINE
  5
1AB
  8
VENUE
  6
CONTINUOUS
 62
     7
 10
16140.90488598239
 20
27168.82920959502
 30
0.0
 11
16740.90488598239
 21
27168.82920959502
 31
0.0
  0
LINE
  5
1AC
  8
VENUE
  6
CONTINUOUS
 62
     7
 10
16740.90488598239
 20
27168.82920959502
 30
0.0
 11
16740.90488598239
 21
27468.82920959502
 31
0.0
  0
LINE
  5
1AD
  8
VENUE
  6
CONTINUOUS
 62
     7
 10
16740.90488598239
 20
27468.82920959502
 30
0.0
 11
16740.90488598239
 21
28268.82920959502
 31
0.0
  0
ARC
  5
1AE
  8
VENUE
  6
CONTINUOUS
 62
     7
 10
16740.90488598239
 20
27468.82920959502
 30
0.0
 40
800.0
 50
0.0
 51
90.0
  0
LINE
  5
1AF
  8
VENUE
  6
CONTINUOUS
 62
     7
 10
30274.90488598239
 20
28118.82920959502
 30
0.0
 11
30274.90488598239
 21
29718.82920959502
 31
0.0
  0
LINE
  5
1B0
  8
VENUE
  6
CONTINUOUS
 62
     7
 10
30274.90488598239
 20
28118.82920959502
 30
0.0
 11
29474.90488598239
 21
28118.82920959502
 31
0.0
  0
LINE
  5
1B1
  8
VENUE
  6
CONTINUOUS
 62
     7
 10
30274.90488598239
 20
29718.82920959502
 30
0.0
 11
29474.90488598239
 21
29718.82920959502
 31
0.0
  0
ARC
  5
1B2
  8
VENUE
  6
CONTINUOUS
 62
     7
 10
30274.90488598239
 20
28118.82920959502
 30
0.0
 40
799.9999999999982
 50
90.0
 51
180.0
  0
ARC
  5
1B3
  8
VENUE
  6
CONTINUOUS
 62
     7
 10
30274.90488598239
 20
29718.82920959502
 30
0.0
 40
800.0
 50
180.0
 51
270.0
  0
LINE
  5
1B4
  8
VENUE
  6
CONTINUOUS
 62
     7
 10
30274.90488598239
 20
29718.82920959502
 30
0.0
 11
30524.90488598239
 21
29718.82920959502
 31
0.0
  0
LINE
  5
1B5
  8
VENUE
  6
CONTINUOUS
 62
     7
 10
29574.90488598239
 20
35668.82920959502
 30
0.0
 11
28374.90488598239
 21
35668.82920959502
 31
0.0
  0
LINE
  5
1B6
  8
VENUE
  6
CONTINUOUS
 62
     7
 10
30524.90488598239
 20
36068.82920959502
 30
0.0
 11
27674.90488598239
 21
36068.82920959502
 31
0.0
  0
LINE
  5
1B7
  8
VENUE
  6
CONTINUOUS
 62
     7
 10
30524.90488598239
 20
30518.82920959502
 30
0.0
 11
30524.90488598239
 21
36068.82920959502
 31
0.0
  0
LINE
  5
1B8
  8
VENUE
  6
CONTINUOUS
 62
     7
 10
29924.90488598239
 20
35168.82920959502
 30
0.0
 11
29574.90488598239
 21
35168.82920959502
 31
0.0
  0
LINE
  5
1B9
  8
VENUE
  6
CONTINUOUS
 62
     7
 10
30074.90488598239
 20
30268.82920959502
 30
0.0
 11
30074.90488598239
 21
35168.82920959502
 31
0.0
  0
LINE
  5
1BA
  8
VENUE
  6
CONTINUOUS
 62
     7
 10
29924.90488598239
 20
30118.82920959502
 30
0.0
 11
29924.90488598239
 21
35168.82920959502
 31
0.0
  0
LINE
  5
1BB
  8
VENUE
  6
CONTINUOUS
 62
     7
 10
30074.90488598239
 20
35168.82920959502
 30
0.0
 11
30174.90488598239
 21
35168.82920959502
 31
0.0
  0
LINE
  5
1BC
  8
VENUE
  6
CONTINUOUS
 62
     7
 10
29574.90488598239
 20
35668.82920959502
 30
0.0
 11
29574.90488598239
 21
35168.82920959502
 31
0.0
  0
LINE
  5
1BD
  8
VENUE
  6
CONTINUOUS
 62
     7
 10
28374.90488598239
 20
35668.82920959502
 30
0.0
 11
23174.90488598239
 21
32458.44420959502
 31
0.0
  0
LINE
  5
1BE
  8
VENUE
  6
CONTINUOUS
 62
     7
 10
23174.90488598239
 20
31068.82920959502
 30
0.0
 11
22374.90488598239
 21
31068.82920959502
 31
0.0
  0
LINE
  5
1BF
  8
VENUE
  6
CONTINUOUS
 62
     7
 10
23174.90488598239
 20
31068.82920959502
 30
0.0
 11
23174.90488598239
 21
32458.44420959502
 31
0.0
  0
LINE
  5
1C0
  8
VENUE
  6
CONTINUOUS
 62
     7
 10
22374.90488598239
 20
31068.82920959502
 30
0.0
 11
22374.90488598239
 21
31964.53920959502
 31
0.0
  0
LINE
  5
1C1
  8
VENUE
  6
CONTINUOUS
 62
     7
 10
22374.90488598239
 20
32215.95920959502
 30
0.0
 11
15740.90488598239
 21
28072.32920959502
 31
0.0
  0
LINE
  5
1C2
  8
VENUE
  6
CONTINUOUS
 62
     7
 10
22374.90488598239
 20
32332.32420959502
 30
0.0
 11
15740.90488598239
 21
28186.94120959502
 31
0.0
  0
LINE
  5
1C3
  8
VENUE
  6
CONTINUOUS
 62
     7
 10
15740.90488598239
 20
28072.32920959502
 30
0.0
 11
15740.90488598239
 21
28186.94120959502
 31
0.0
  0
LINE
  5
1C4
  8
VENUE
  6
CONTINUOUS
 62
     7
 10
22374.90488598239
 20
32215.95920959502
 30
0.0
 11
22374.90488598239
 21
32332.32420959502
 31
0.0
  0
LINE
  5
1C5
  8
VENUE
  6
CONTINUOUS
 62
     7
 10
23174.90488598239
 20
32715.64320959501
 30
0.0
 11
23174.90488598239
 21
32832.22020959502
 31
0.0
  0
LINE
  5
1C6
  8
VENUE
  6
CONTINUOUS
 62
     7
 10
27902.99088598239
 20
35668.82920959502
 30
0.0
 11
23174.90488598239
 21
32715.64320959501
 31
0.0
  0
LINE
  5
1C7
  8
VENUE
  6
CONTINUOUS
 62
     7
 10
23174.90488598239
 20
32832.22020959502
 30
0.0
 11
27714.42788598239
 21
35668.82920959502
 31
0.0
  0
LINE
  5
1C8
  8
VENUE
  6
CONTINUOUS
 62
     7
 10
22374.90488598239
 20
31964.53920959502
 30
0.0
 11
14940.90488598239
 21
27374.9238734479
 31
0.0
  0
LINE
  5
1C9
  8
VENUE
  6
CONTINUOUS
 62
     7
 10
2548.904885982389
 20
15955.82920959502
 30
0.0
 11
14940.90488598239
 21
15955.82920959502
 31
0.0
  0
LINE
  5
1CA
  8
VENUE
  6
CONTINUOUS
 62
     7
 10
14940.90488598239
 20
14168.82920959502
 30
0.0
 11
14940.90488598239
 21
4805.829209595018
 31
0.0
  0
LINE
  5
1CB
  8
VENUE
  6
CONTINUOUS
 62
     7
 10
-3359.095114017611
 20
10488.82920959502
 30
0.0
 11
2240.904885982389
 21
10488.82920959502
 31
0.0
  0
LINE
  5
1CC
  8
VENUE
  6
CONTINUOUS
 62
     7
 10
-3651.095114017611
 20
-4461.170790404984
 30
0.0
 11
248.9048859823888
 21
-4461.170790404984
 31
0.0
  0
LINE
  5
1CD
  8
VENUE
  6
CONTINUOUS
 62
     7
 10
-4259.095114017611
 20
-5044.170790404984
 30
0.0
 11
-4259.095114017611
 21
10838.82920959502
 31
0.0
  0
LINE
  5
1CE
  8
VENUE
  6
CONTINUOUS
 62
     7
 10
3140.904885982389
 20
-4844.170790404984
 30
0.0
 11
3140.904885982389
 21
-14744.17079040498
 31
0.0
  0
LINE
  5
1CF
  8
VENUE
  6
CONTINUOUS
 62
     7
 10
2240.904885982389
 20
-5044.170790404984
 30
0.0
 11
2240.904885982389
 21
-15444.17079040498
 31
0.0
  0
LINE
  5
1D0
  8
VENUE
  6
CONTINUOUS
 62
     7
 10
-3359.095114017611
 20
-4761.170790404984
 30
0.0
 11
2240.904885982389
 21
-4761.170790404984
 31
0.0
  0
LINE
  5
1D1
  8
VENUE
  6
CONTINUOUS
 62
     7
 10
-3359.095114017611
 20
-4661.170790404984
 30
0.0
 11
2240.904885982389
 21
-4661.170790404984
 31
0.0
  0
LINE
  5
1D2
  8
VENUE
  6
CONTINUOUS
 62
     7
 10
-3359.095114017611
 20
10088.82920959502
 30
0.0
 11
-3659.095114017611
 21
10088.82920959502
 31
0.0
  0
LINE
  5
1D3
  8
VENUE
  6
CONTINUOUS
 62
     7
 10
-3959.095114017611
 20
7838.829209595018
 30
0.0
 11
-3959.095114017611
 21
10088.82920959502
 31
0.0
  0
LINE
  5
1D4
  8
VENUE
  6
CONTINUOUS
 62
     7
 10
-3543.095114017611
 20
-2861.170790404982
 30
0.0
 11
-3659.095114017611
 21
-2861.170790404982
 31
0.0
  0
LINE
  5
1D5
  8
VENUE
  6
CONTINUOUS
 62
     7
 10
-3859.095114017611
 20
-4461.170790404984
 30
0.0
 11
-3959.095114017611
 21
-4461.170790404984
 31
0.0
  0
LINE
  5
1D6
  8
VENUE
  6
CONTINUOUS
 62
     7
 10
-3659.095114017611
 20
-4461.170790404984
 30
0.0
 11
-3659.095114017611
 21
-2861.170790404982
 31
0.0
  0
LINE
  5
1D7
  8
VENUE
  6
CONTINUOUS
 62
     7
 10
-3859.095114017611
 20
-2861.170790404982
 30
0.0
 11
-3959.095114017611
 21
-2861.170790404982
 31
0.0
  0
LINE
  5
1D8
  8
VENUE
  6
CONTINUOUS
 62
     7
 10
-3959.095114017611
 20
-4461.170790404984
 30
0.0
 11
-3959.095114017611
 21
-2861.170790404982
 31
0.0
  0
LINE
  5
1D9
  8
VENUE
  6
CONTINUOUS
 62
     7
 10
-3859.095114017611
 20
-2861.170790404982
 30
0.0
 11
-3859.095114017611
 21
-4461.170790404984
 31
0.0
  0
LINE
  5
1DA
  8
VENUE
  6
CONTINUOUS
 62
     7
 10
-3543.095114017611
 20
-1961.170790404982
 30
0.0
 11
-3659.095114017611
 21
-1961.170790404982
 31
0.0
  0
LINE
  5
1DB
  8
VENUE
  6
CONTINUOUS
 62
     7
 10
-3543.095114017611
 20
-2861.170790404982
 30
0.0
 11
-3543.095114017611
 21
-1961.170790404982
 31
0.0
  0
LINE
  5
1DC
  8
VENUE
  6
CONTINUOUS
 62
     7
 10
-3859.095114017611
 20
-1961.170790404982
 30
0.0
 11
-3959.095114017611
 21
-1961.170790404982
 31
0.0
  0
LINE
  5
1DD
  8
VENUE
  6
CONTINUOUS
 62
     7
 10
-3659.095114017611
 20
-1961.170790404982
 30
0.0
 11
-3659.095114017611
 21
538.8292095950183
 31
0.0
  0
LINE
  5
1DE
  8
VENUE
  6
CONTINUOUS
 62
     7
 10
-3659.095114017611
 20
538.8292095950183
 30
0.0
 11
248.9048859823888
 21
538.8292095950183
 31
0.0
  0
LINE
  5
1DF
  8
VENUE
  6
CONTINUOUS
 62
     7
 10
-3859.095114017611
 20
538.8292095950183
 30
0.0
 11
-3959.095114017611
 21
538.8292095950183
 31
0.0
  0
LINE
  5
1E0
  8
VENUE
  6
CONTINUOUS
 62
     7
 10
-3959.095114017611
 20
-1961.170790404982
 30
0.0
 11
-3959.095114017611
 21
538.8292095950183
 31
0.0
  0
LINE
  5
1E1
  8
VENUE
  6
CONTINUOUS
 62
     7
 10
-3859.095114017611
 20
538.8292095950183
 30
0.0
 11
-3859.095114017611
 21
-1961.170790404982
 31
0.0
  0
LINE
  5
1E2
  8
VENUE
  6
CONTINUOUS
 62
     7
 10
-3659.095114017611
 20
738.8292095950183
 30
0.0
 11
740.9048859823888
 21
738.8292095950183
 31
0.0
  0
LINE
  5
1E3
  8
VENUE
  6
CONTINUOUS
 62
     7
 10
-3859.095114017611
 20
738.8292095950183
 30
0.0
 11
-3959.095114017611
 21
738.8292095950183
 31
0.0
  0
LINE
  5
1E4
  8
VENUE
  6
CONTINUOUS
 62
     7
 10
-3959.095114017611
 20
738.8292095950183
 30
0.0
 11
-3959.095114017611
 21
2638.829209595018
 31
0.0
  0
LINE
  5
1E5
  8
VENUE
  6
CONTINUOUS
 62
     7
 10
-3859.095114017611
 20
738.8292095950183
 30
0.0
 11
-3859.095114017611
 21
2638.829209595018
 31
0.0
  0
LINE
  5
1E6
  8
VENUE
  6
CONTINUOUS
 62
     7
 10
-3659.095114017611
 20
738.8292095950183
 30
0.0
 11
-3659.095114017611
 21
2638.829209595018
 31
0.0
  0
LINE
  5
1E7
  8
VENUE
  6
CONTINUOUS
 62
     7
 10
-3659.095114017611
 20
2638.829209595018
 30
0.0
 11
-2259.095114017611
 21
2638.829209595018
 31
0.0
  0
LINE
  5
1E8
  8
VENUE
  6
CONTINUOUS
 62
     7
 10
-3459.095114017611
 20
2838.829209595018
 30
0.0
 11
-2259.095114017611
 21
2838.829209595018
 31
0.0
  0
LINE
  5
1E9
  8
VENUE
  6
CONTINUOUS
 62
     7
 10
-3859.095114017611
 20
2638.829209595018
 30
0.0
 11
-3959.095114017611
 21
2638.829209595018
 31
0.0
  0
LINE
  5
1EA
  8
VENUE
  6
CONTINUOUS
 62
     7
 10
-3459.095114017611
 20
7638.829209595018
 30
0.0
 11
-259.0951140176112
 21
7638.829209595018
 31
0.0
  0
LINE
  5
1EB
  8
VENUE
  6
CONTINUOUS
 62
     7
 10
-3659.095114017611
 20
7838.829209595018
 30
0.0
 11
90.9048859823888
 21
7838.829209595018
 31
0.0
  0
LINE
  5
1EC
  8
VENUE
  6
CONTINUOUS
 62
     7
 10
-3459.095114017611
 20
2838.829209595018
 30
0.0
 11
-3459.095114017611
 21
7638.829209595018
 31
0.0
  0
LINE
  5
1ED
  8
VENUE
  6
CONTINUOUS
 62
     7
 10
-3659.095114017611
 20
10088.82920959502
 30
0.0
 11
-3659.095114017611
 21
7838.829209595018
 31
0.0
  0
LINE
  5
1EE
  8
VENUE
  6
CONTINUOUS
 62
     7
 10
-3859.095114017611
 20
7838.829209595018
 30
0.0
 11
-3959.095114017611
 21
7838.829209595018
 31
0.0
  0
LINE
  5
1EF
  8
VENUE
  6
CONTINUOUS
 62
     7
 10
-3859.095114017611
 20
7838.829209595018
 30
0.0
 11
-3859.095114017611
 21
10088.82920959502
 31
0.0
  0
LINE
  5
1F0
  8
VENUE
  6
CONTINUOUS
 62
     7
 10
-4069.095114017611
 20
-1961.170790404982
 30
0.0
 11
-4069.095114017611
 21
10088.82920959502
 31
0.0
  0
LINE
  5
1F1
  8
VENUE
  6
CONTINUOUS
 62
     7
 10
-4069.095114017611
 20
-1961.170790404982
 30
0.0
 11
-4149.095114017611
 21
-1961.170790404982
 31
0.0
  0
LINE
  5
1F2
  8
VENUE
  6
CONTINUOUS
 62
     7
 10
-3609.095114017611
 20
2838.829209595018
 30
0.0
 11
-3609.095114017611
 21
7638.829209595018
 31
0.0
  0
LINE
  5
1F3
  8
VENUE
  6
CONTINUOUS
 62
     7
 10
-3609.095114017611
 20
7638.829209595018
 30
0.0
 11
-3959.095114017611
 21
7638.829209595018
 31
0.0
  0
LINE
  5
1F4
  8
VENUE
  6
CONTINUOUS
 62
     7
 10
-4143.095114017611
 20
10088.82920959502
 30
0.0
 11
-4143.095114017611
 21
-1961.170790404982
 31
0.0
  0
LINE
  5
1F5
  8
VENUE
  6
CONTINUOUS
 62
     7
 10
-3359.095114017611
 20
10188.82920959502
 30
0.0
 11
2240.904885982389
 21
10188.82920959502
 31
0.0
  0
LINE
  5
1F6
  8
VENUE
  6
CONTINUOUS
 62
     7
 10
-4259.095114017611
 20
10838.82920959502
 30
0.0
 11
2240.904885982389
 21
10838.82920959502
 31
0.0
  0
LINE
  5
1F7
  8
VENUE
  6
CONTINUOUS
 62
     7
 10
-3359.095114017611
 20
10338.82920959502
 30
0.0
 11
2240.904885982389
 21
10338.82920959502
 31
0.0
  0
LINE
  5
1F8
  8
VENUE
  6
CONTINUOUS
 62
     7
 10
-3359.095114017611
 20
10088.82920959502
 30
0.0
 11
-3359.095114017611
 21
10188.82920959502
 31
0.0
  0
LINE
  5
1F9
  8
VENUE
  6
CONTINUOUS
 62
     7
 10
-3359.095114017611
 20
10338.82920959502
 30
0.0
 11
-3359.095114017611
 21
10488.82920959502
 31
0.0
  0
LINE
  5
1FA
  8
VENUE
  6
CONTINUOUS
 62
     7
 10
2248.904885982389
 20
7838.829209595018
 30
0.0
 11
2248.904885982389
 21
10188.82920959502
 31
0.0
  0
LINE
  5
1FB
  8
VENUE
  6
CONTINUOUS
 62
     7
 10
2248.904885982389
 20
10838.82920959502
 30
0.0
 11
2248.904885982389
 21
16255.82920959502
 31
0.0
  0
LINE
  5
1FC
  8
VENUE
  6
CONTINUOUS
 62
     7
 10
2548.904885982389
 20
10838.82920959502
 30
0.0
 11
2548.904885982389
 21
15955.82920959502
 31
0.0
  0
LINE
  5
1FD
  8
VENUE
  6
CONTINUOUS
 62
     7
 10
2248.904885982389
 20
10338.82920959502
 30
0.0
 11
2248.904885982389
 21
10488.82920959502
 31
0.0
  0
LINE
  5
1FE
  8
VENUE
  6
CONTINUOUS
 62
     7
 10
2548.904885982389
 20
10838.82920959502
 30
0.0
 11
3148.904885982389
 21
10838.82920959502
 31
0.0
  0
LINE
  5
1FF
  8
VENUE
  6
CONTINUOUS
 62
     7
 10
3148.904885982389
 20
10838.82920959502
 30
0.0
 11
3148.904885982389
 21
9938.829209595018
 31
0.0
  0
LINE
  5
200
  8
VENUE
  6
CONTINUOUS
 62
     7
 10
3148.904885982389
 20
9938.829209595018
 30
0.0
 11
2448.904885982389
 21
9938.829209595018
 31
0.0
  0
LINE
  5
201
  8
VENUE
  6
CONTINUOUS
 62
     7
 10
2448.904885982389
 20
2138.829209595018
 30
0.0
 11
2448.904885982389
 21
738.8292095950183
 31
0.0
  0
LINE
  5
202
  8
VENUE
  6
CONTINUOUS
 62
     7
 10
2248.904885982389
 20
7838.829209595018
 30
0.0
 11
1248.904885982389
 21
7838.829209595018
 31
0.0
  0
LINE
  5
203
  8
VENUE
  6
CONTINUOUS
 62
     7
 10
2248.904885982389
 20
7638.829209595018
 30
0.0
 11
1248.904885982389
 21
7638.829209595018
 31
0.0
  0
LINE
  5
204
  8
VENUE
  6
CONTINUOUS
 62
     7
 10
2248.904885982389
 20
7638.829209595018
 30
0.0
 11
2248.904885982389
 21
5088.829209595018
 31
0.0
  0
LINE
  5
205
  8
VENUE
  6
CONTINUOUS
 62
     7
 10
1248.904885982389
 20
7638.829209595018
 30
0.0
 11
1248.904885982389
 21
7838.829209595018
 31
0.0
  0
LINE
  5
206
  8
VENUE
  6
CONTINUOUS
 62
     7
 10
90.9048859823888
 20
7838.829209595018
 30
0.0
 11
90.9048859823888
 21
7638.829209595018
 31
0.0
  0
LINE
  5
207
  8
VENUE
  6
CONTINUOUS
 62
     7
 10
-259.0951140176112
 20
2838.829209595018
 30
0.0
 11
-259.0951140176112
 21
7638.829209595018
 31
0.0
  0
LINE
  5
208
  8
VENUE
  6
CONTINUOUS
 62
     7
 10
-59.09511401761119
 20
5088.829209595018
 30
0.0
 11
-59.09511401761119
 21
7638.829209595018
 31
0.0
  0
LINE
  5
209
  8
VENUE
  6
CONTINUOUS
 62
     7
 10
-59.09511401761119
 20
7638.829209595018
 30
0.0
 11
90.9048859823888
 21
7638.829209595018
 31
0.0
  0
LINE
  5
20A
  8
VENUE
  6
CONTINUOUS
 62
     7
 10
-2259.095114017611
 20
2638.829209595018
 30
0.0
 11
-2259.095114017611
 21
2838.829209595018
 31
0.0
  0
LINE
  5
20B
  8
VENUE
  6
CONTINUOUS
 62
     7
 10
-259.0951140176112
 20
2638.829209595018
 30
0.0
 11
-1259.095114017611
 21
2638.829209595018
 31
0.0
  0
LINE
  5
20C
  8
VENUE
  6
CONTINUOUS
 62
     7
 10
-1259.095114017611
 20
2638.829209595018
 30
0.0
 11
-1259.095114017611
 21
2838.829209595018
 31
0.0
  0
LINE
  5
20D
  8
VENUE
  6
CONTINUOUS
 62
     7
 10
-1259.095114017611
 20
2838.829209595018
 30
0.0
 11
-259.0951140176112
 21
2838.829209595018
 31
0.0
  0
LINE
  5
20E
  8
VENUE
  6
CONTINUOUS
 62
     7
 10
-259.0951140176112
 20
2638.829209595018
 30
0.0
 11
-259.0951140176112
 21
1838.829209595018
 31
0.0
  0
LINE
  5
20F
  8
VENUE
  6
CONTINUOUS
 62
     7
 10
-259.0951140176112
 20
1838.829209595018
 30
0.0
 11
1040.904885982389
 21
1838.829209595018
 31
0.0
  0
LINE
  5
210
  8
VENUE
  6
CONTINUOUS
 62
     7
 10
1040.904885982389
 20
1838.829209595018
 30
0.0
 11
1040.904885982389
 21
2738.829209595018
 31
0.0
  0
LINE
  5
211
  8
VENUE
  6
CONTINUOUS
 62
     7
 10
1040.904885982389
 20
3838.829209595018
 30
0.0
 11
-59.09511401761119
 21
3838.829209595018
 31
0.0
  0
LINE
  5
212
  8
VENUE
  6
CONTINUOUS
 62
     7
 10
-59.09511401761119
 20
2038.829209595018
 30
0.0
 11
890.9048859823888
 21
2038.829209595018
 31
0.0
  0
LINE
  5
213
  8
VENUE
  6
CONTINUOUS
 62
     7
 10
890.9048859823888
 20
3688.829209595018
 30
0.0
 11
-59.09511401761119
 21
3688.829209595018
 31
0.0
  0
LINE
  5
214
  8
VENUE
  6
CONTINUOUS
 62
     7
 10
-59.09511401761119
 20
2038.829209595018
 30
0.0
 11
-59.09511401761119
 21
3688.829209595018
 31
0.0
  0
LINE
  5
215
  8
VENUE
  6
CONTINUOUS
 62
     7
 10
890.9048859823888
 20
3438.829209595018
 30
0.0
 11
890.9048859823888
 21
3688.829209595018
 31
0.0
  0
LINE
  5
216
  8
VENUE
  6
CONTINUOUS
 62
     7
 10
890.9048859823888
 20
2038.829209595018
 30
0.0
 11
890.9048859823888
 21
2738.829209595018
 31
0.0
  0
LINE
  5
217
  8
VENUE
  6
CONTINUOUS
 62
     7
 10
890.9048859823888
 20
2738.829209595018
 30
0.0
 11
1040.904885982389
 21
2738.829209595018
 31
0.0
  0
LINE
  5
218
  8
VENUE
  6
CONTINUOUS
 62
     7
 10
1040.904885982389
 20
3438.829209595018
 30
0.0
 11
1040.904885982389
 21
3838.829209595018
 31
0.0
  0
LINE
  5
219
  8
VENUE
  6
CONTINUOUS
 62
     7
 10
1040.904885982389
 20
2738.829209595018
 30
0.0
 11
1040.904885982389
 21
3438.829209595018
 31
0.0
  0
LINE
  5
21A
  8
VENUE
  6
CONTINUOUS
 62
     7
 10
1040.904885982389
 20
3438.829209595018
 30
0.0
 11
890.9048859823888
 21
3438.829209595018
 31
0.0
  0
LINE
  5
21B
  8
VENUE
  6
CONTINUOUS
 62
     7
 10
1040.904885982389
 20
3438.829209595018
 30
0.0
 11
1740.904885982389
 21
3438.829209595018
 31
0.0
  0
ARC
  5
21C
  8
VENUE
  6
CONTINUOUS
 62
     7
 10
1040.904885982389
 20
3438.829209595018
 30
0.0
 40
700.0
 50
270.0
 51
0.0
  0
LINE
  5
21D
  8
VENUE
  6
CONTINUOUS
 62
     7
 10
248.9048859823888
 20
-4461.170790404984
 30
0.0
 11
248.9048859823888
 21
-2261.170790404982
 31
0.0
  0
LINE
  5
21E
  8
VENUE
  6
CONTINUOUS
 62
     7
 10
448.9048859823888
 20
-4461.170790404984
 30
0.0
 11
448.9048859823888
 21
-2261.170790404982
 31
0.0
  0
LINE
  5
21F
  8
VENUE
  6
CONTINUOUS
 62
     7
 10
448.9048859823888
 20
-4461.170790404984
 30
0.0
 11
3148.904885982389
 21
-4461.170790404984
 31
0.0
  0
LINE
  5
220
  8
VENUE
  6
CONTINUOUS
 62
     7
 10
248.9048859823888
 20
-2261.170790404982
 30
0.0
 11
248.9048859823888
 21
538.8292095950183
 31
0.0
  0
LINE
  5
221
  8
VENUE
  6
CONTINUOUS
 62
     7
 10
448.9048859823888
 20
-1961.170790404982
 30
0.0
 11
448.9048859823888
 21
-361.1707904049817
 31
0.0
  0
LINE
  5
222
  8
VENUE
  6
CONTINUOUS
 62
     7
 10
440.9048859823888
 20
538.8292095950183
 30
0.0
 11
740.9048859823888
 21
538.8292095950183
 31
0.0
  0
LINE
  5
223
  8
VENUE
  6
CONTINUOUS
 62
     7
 10
740.9048859823888
 20
538.8292095950183
 30
0.0
 11
740.9048859823888
 21
738.8292095950183
 31
0.0
  0
LINE
  5
224
  8
VENUE
  6
CONTINUOUS
 62
     7
 10
440.9048859823888
 20
438.8292095950183
 30
0.0
 11
240.9048859823888
 21
438.8292095950183
 31
0.0
  0
LINE
  5
225
  8
VENUE
  6
CONTINUOUS
 62
     7
 10
448.9048859823888
 20
-361.1707904049817
 30
0.0
 11
248.9048859823888
 21
-361.1707904049817
 31
0.0
  0
LINE
  5
226
  8
VENUE
  6
CONTINUOUS
 62
     7
 10
440.9048859823888
 20
438.8292095950183
 30
0.0
 11
440.9048859823888
 21
538.8292095950183
 31
0.0
  0
LINE
  5
227
  8
VENUE
  6
CONTINUOUS
 62
     7
 10
240.9048859823888
 20
438.8292095950183
 30
0.0
 11
-559.0951140176112
 21
438.8292095950183
 31
0.0
  0
ARC
  5
228
  8
VENUE
  6
CONTINUOUS
 62
     7
 10
240.9048859823888
 20
438.8292095950183
 30
0.0
 40
800.0
 50
180.0
 51
270.0
  0
LINE
  5
229
  8
VENUE
  6
CONTINUOUS
 62
     7
 10
-69.0951140176112
 20
38.82920959501826
 30
0.0
 11
570.9048859823888
 21
38.82920959501826
 31
0.0
  0
LINE
  5
22A
  8
VENUE
  6
CONTINUOUS
 62
     7
 10
448.9048859823888
 20
-1961.170790404982
 30
0.0
 11
2798.904885982389
 21
-1961.170790404982
 31
0.0
  0
LINE
  5
22B
  8
VENUE
  6
CONTINUOUS
 62
     7
 10
3148.904885982389
 20
-2861.170790404982
 30
0.0
 11
3148.904885982389
 21
-1961.170790404982
 31
0.0
  0
LINE
  5
22C
  8
VENUE
  6
CONTINUOUS
 62
     7
 10
2248.904885982389
 20
-2861.170790404982
 30
0.0
 11
3148.904885982389
 21
-2861.170790404982
 31
0.0
  0
LINE
  5
22D
  8
VENUE
  6
CONTINUOUS
 62
     7
 10
2248.904885982389
 20
-2861.170790404982
 30
0.0
 11
2248.904885982389
 21
-2161.170790404982
 31
0.0
  0
LINE
  5
22E
  8
VENUE
  6
CONTINUOUS
 62
     7
 10
1456.904885982389
 20
-2161.170790404982
 30
0.0
 11
2248.904885982389
 21
-2161.170790404982
 31
0.0
  0
LINE
  5
22F
  8
VENUE
  6
CONTINUOUS
 62
     7
 10
448.9048859823888
 20
-2161.170790404982
 30
0.0
 11
448.9048859823888
 21
-2261.170790404982
 31
0.0
  0
LINE
  5
230
  8
VENUE
  6
CONTINUOUS
 62
     7
 10
448.9048859823888
 20
-2161.170790404982
 30
0.0
 11
648.9048859823888
 21
-2161.170790404982
 31
0.0
  0
LINE
  5
231
  8
VENUE
  6
CONTINUOUS
 62
     7
 10
648.9048859823888
 20
-2161.170790404982
 30
0.0
 11
648.9048859823888
 21
-1961.170790404982
 31
0.0
  0
LINE
  5
232
  8
VENUE
  6
CONTINUOUS
 62
     7
 10
1456.904885982389
 20
-2161.170790404982
 30
0.0
 11
1456.904885982389
 21
-1961.170790404982
 31
0.0
  0
LINE
  5
233
  8
VENUE
  6
CONTINUOUS
 62
     7
 10
648.9048859823888
 20
-1961.170790404982
 30
0.0
 11
648.9048859823888
 21
-1161.170790404982
 31
0.0
  0
ARC
  5
234
  8
VENUE
  6
CONTINUOUS
 62
     7
 10
648.9048859823888
 20
-1961.170790404982
 30
0.0
 40
800.0
 50
0.0
 51
90.0
  0
LINE
  5
235
  8
VENUE
  6
CONTINUOUS
 62
     7
 10
1048.904885982389
 20
-1781.170790404982
 30
0.0
 11
1048.904885982389
 21
-2141.170790404982
 31
0.0
  0
LINE
  5
236
  8
VENUE
  6
CONTINUOUS
 62
     7
 10
2590.904885982389
 20
-9194.170790404984
 30
0.0
 11
2590.904885982389
 21
-14544.17079040498
 31
0.0
  0
LINE
  5
237
  8
VENUE
  6
CONTINUOUS
 62
     7
 10
2940.904885982389
 20
-9194.170790404984
 30
0.0
 11
2940.904885982389
 21
-14544.17079040498
 31
0.0
  0
LINE
  5
238
  8
VENUE
  6
CONTINUOUS
 62
     7
 10
2423.904885982389
 20
-4461.170790404984
 30
0.0
 11
2423.904885982389
 21
-2861.170790404982
 31
0.0
  0
LINE
  5
239
  8
VENUE
  6
CONTINUOUS
 62
     7
 10
3048.904885982389
 20
-4461.170790404984
 30
0.0
 11
3048.904885982389
 21
-2861.170790404982
 31
0.0
  0
LINE
  5
23A
  8
VENUE
  6
CONTINUOUS
 62
     7
 10
2448.904885982389
 20
738.8292095950183
 30
0.0
 11
2948.904885982389
 21
738.8292095950183
 31
0.0
  0
LINE
  5
23B
  8
VENUE
  6
CONTINUOUS
 62
     7
 10
2948.904885982389
 20
-1961.170790404982
 30
0.0
 11
2948.904885982389
 21
-1661.170790404982
 31
0.0
  0
LINE
  5
23C
  8
VENUE
  6
CONTINUOUS
 62
     7
 10
2798.904885982389
 20
-1961.170790404982
 30
0.0
 11
2798.904885982389
 21
-1661.170790404982
 31
0.0
  0
LINE
  5
23D
  8
VENUE
  6
CONTINUOUS
 62
     7
 10
2798.904885982389
 20
-1661.170790404982
 30
0.0
 11
2948.904885982389
 21
-1661.170790404982
 31
0.0
  0
LINE
  5
23E
  8
VENUE
  6
CONTINUOUS
 62
     7
 10
2948.904885982389
 20
-1961.170790404982
 30
0.0
 11
3148.904885982389
 21
-1961.170790404982
 31
0.0
  0
LINE
  5
23F
  8
VENUE
  6
CONTINUOUS
 62
     7
 10
2948.904885982389
 20
338.8292095950183
 30
0.0
 11
2948.904885982389
 21
738.8292095950183
 31
0.0
  0
LINE
  5
240
  8
VENUE
  6
CONTINUOUS
 62
     7
 10
2798.904885982389
 20
538.8292095950183
 30
0.0
 11
2798.904885982389
 21
338.8292095950183
 31
0.0
  0
LINE
  5
241
  8
VENUE
  6
CONTINUOUS
 62
     7
 10
2098.904885982389
 20
538.8292095950183
 30
0.0
 11
2798.904885982389
 21
538.8292095950183
 31
0.0
  0
LINE
  5
242
  8
VENUE
  6
CONTINUOUS
 62
     7
 10
2948.904885982389
 20
338.8292095950183
 30
0.0
 11
2798.904885982389
 21
338.8292095950183
 31
0.0
  0
LINE
  5
243
  8
VENUE
  6
CONTINUOUS
 62
     7
 10
2248.904885982389
 20
738.8292095950183
 30
0.0
 11
2098.904885982389
 21
738.8292095950183
 31
0.0
  0
LINE
  5
244
  8
VENUE
  6
CONTINUOUS
 62
     7
 10
2098.904885982389
 20
738.8292095950183
 30
0.0
 11
2098.904885982389
 21
538.8292095950183
 31
0.0
  0
LINE
  5
245
  8
VENUE
  6
CONTINUOUS
 62
     7
 10
140.9048859823888
 20
4938.829209595018
 30
0.0
 11
-59.09511401761119
 21
4938.829209595018
 31
0.0
  0
LINE
  5
246
  8
VENUE
  6
CONTINUOUS
 62
     7
 10
2248.904885982389
 20
4938.829209595018
 30
0.0
 11
1048.904885982389
 21
4938.829209595018
 31
0.0
  0
LINE
  5
247
  8
VENUE
  6
CONTINUOUS
 62
     7
 10
2248.904885982389
 20
5088.829209595018
 30
0.0
 11
1048.904885982389
 21
5088.829209595018
 31
0.0
  0
LINE
  5
248
  8
VENUE
  6
CONTINUOUS
 62
     7
 10
140.9048859823888
 20
5088.829209595018
 30
0.0
 11
-59.09511401761119
 21
5088.829209595018
 31
0.0
  0
LINE
  5
249
  8
VENUE
  6
CONTINUOUS
 62
     7
 10
-59.09511401761119
 20
3838.829209595018
 30
0.0
 11
-59.09511401761119
 21
4938.829209595018
 31
0.0
  0
LINE
  5
24A
  8
VENUE
  6
CONTINUOUS
 62
     7
 10
140.9048859823888
 20
4938.829209595018
 30
0.0
 11
140.9048859823888
 21
5088.829209595018
 31
0.0
  0
LINE
  5
24B
  8
VENUE
  6
CONTINUOUS
 62
     7
 10
1048.904885982389
 20
5088.829209595018
 30
0.0
 11
1048.904885982389
 21
4938.829209595018
 31
0.0
  0
LINE
  5
24C
  8
VENUE
  6
CONTINUOUS
 62
     7
 10
2248.904885982389
 20
4938.829209595018
 30
0.0
 11
2248.904885982389
 21
738.8292095950183
 31
0.0
  0
LINE
  5
24D
  8
VENUE
  6
CONTINUOUS
 62
     7
 10
3148.904885982389
 20
-4644.170790404984
 30
0.0
 11
4348.904885982389
 21
-4644.170790404984
 31
0.0
  0
LINE
  5
24E
  8
VENUE
  6
CONTINUOUS
 62
     7
 10
3148.904885982389
 20
-4844.170790404984
 30
0.0
 11
6198.904885982389
 21
-4844.170790404984
 31
0.0
  0
LINE
  5
24F
  8
VENUE
  6
CONTINUOUS
 62
     7
 10
4156.904885982389
 20
-4644.170790404984
 30
0.0
 11
11506.90488598239
 21
-4644.170790404984
 31
0.0
  0
LINE
  5
250
  8
VENUE
  6
CONTINUOUS
 62
     7
 10
9848.904885982389
 20
-4844.170790404984
 30
0.0
 11
12906.90488598239
 21
-4844.170790404984
 31
0.0
  0
LINE
  5
251
  8
VENUE
  6
CONTINUOUS
 62
     7
 10
11506.90488598239
 20
-4644.170790404984
 30
0.0
 11
13456.90488598239
 21
-4644.170790404984
 31
0.0
  0
LINE
  5
252
  8
VENUE
  6
CONTINUOUS
 62
     7
 10
15356.90488598239
 20
-3894.170790404982
 30
0.0
 11
15356.90488598239
 21
-4644.170790404984
 31
0.0
  0
LINE
  5
253
  8
VENUE
  6
CONTINUOUS
 62
     7
 10
15606.90488598239
 20
-3894.170790404982
 30
0.0
 11
15606.90488598239
 21
-2994.170790404982
 31
0.0
  0
LINE
  5
254
  8
VENUE
  6
CONTINUOUS
 62
     7
 10
15356.90488598239
 20
-2994.170790404982
 30
0.0
 11
15356.90488598239
 21
-2794.170790404982
 31
0.0
  0
LINE
  5
255
  8
VENUE
  6
CONTINUOUS
 62
     7
 10
16006.90488598239
 20
-2444.170790404982
 30
0.0
 11
16006.90488598239
 21
-1644.170790404982
 31
0.0
  0
LINE
  5
256
  8
VENUE
  6
CONTINUOUS
 62
     7
 10
14706.90488598239
 20
-2794.170790404982
 30
0.0
 11
14706.90488598239
 21
-1644.170790404982
 31
0.0
  0
LINE
  5
257
  8
VENUE
  6
CONTINUOUS
 62
     7
 10
15616.90488598239
 20
-2991.170790404982
 30
0.0
 11
16416.90488598239
 21
-2991.170790404982
 31
0.0
  0
LINE
  5
258
  8
VENUE
  6
CONTINUOUS
 62
     7
 10
22106.90488598239
 20
-2444.170790404982
 30
0.0
 11
16006.90488598239
 21
-2444.170790404982
 31
0.0
  0
LINE
  5
259
  8
VENUE
  6
CONTINUOUS
 62
     7
 10
13156.90488598239
 20
-4844.170790404984
 30
0.0
 11
13656.90488598239
 21
-4844.170790404984
 31
0.0
  0
LINE
  5
25A
  8
VENUE
  6
CONTINUOUS
 62
     7
 10
16240.90488598239
 20
4955.829209595018
 30
0.0
 11
16240.90488598239
 21
3655.829209595018
 31
0.0
  0
LINE
  5
25B
  8
VENUE
  6
CONTINUOUS
 62
     7
 10
16140.90488598239
 20
6338.829209595018
 30
0.0
 11
15230.90488598239
 21
6338.829209595018
 31
0.0
  0
LINE
  5
25C
  8
VENUE
  6
CONTINUOUS
 62
     7
 10
16140.90488598239
 20
8238.829209595018
 30
0.0
 11
15230.90488598239
 21
8238.829209595018
 31
0.0
  0
LINE
  5
25D
  8
VENUE
  6
CONTINUOUS
 62
     7
 10
16140.90488598239
 20
8238.829209595018
 30
0.0
 11
16140.90488598239
 21
9905.829209595018
 31
0.0
  0
LINE
  5
25E
  8
VENUE
  6
CONTINUOUS
 62
     7
 10
16240.90488598239
 20
9905.829209595018
 30
0.0
 11
16240.90488598239
 21
11205.82920959502
 31
0.0
  0
LINE
  5
25F
  8
VENUE
  6
CONTINUOUS
 62
     7
 10
16140.90488598239
 20
12368.82920959502
 30
0.0
 11
14940.90488598239
 21
12368.82920959502
 31
0.0
  0
LINE
  5
260
  8
VENUE
  6
CONTINUOUS
 62
     7
 10
16140.90488598239
 20
12368.82920959502
 30
0.0
 11
16140.90488598239
 21
11205.82920959502
 31
0.0
  0
LINE
  5
261
  8
VENUE
  6
CONTINUOUS
 62
     7
 10
9848.904885982389
 20
-5644.170790404984
 30
0.0
 11
9848.904885982389
 21
-4644.170790404984
 31
0.0
  0
LINE
  5
262
  8
VENUE
  6
CONTINUOUS
 62
     7
 10
8048.904885982389
 20
-5644.170790404984
 30
0.0
 11
8048.904885982389
 21
-4644.170790404984
 31
0.0
  0
LINE
  5
263
  8
VENUE
  6
CONTINUOUS
 62
     7
 10
7998.904885982389
 20
-5644.170790404984
 30
0.0
 11
7998.904885982389
 21
-4644.170790404984
 31
0.0
  0
LINE
  5
264
  8
VENUE
  6
CONTINUOUS
 62
     7
 10
6198.904885982389
 20
-5644.170790404984
 30
0.0
 11
6198.904885982389
 21
-4644.170790404984
 31
0.0
  0
POLYLINE
  5
265
  8
VENUE
  6
CONTINUOUS
 62
     7
 66
     1
 10
0.0
 20
0.0
 30
0.0
 70
   128
  0
VERTEX
  5
553
  8
VENUE
  6
CONTINUOUS
 62
     7
 10
9848.904885982389
 20
-4644.170790404984
 30
0.0
  0
VERTEX
  5
554
  8
VENUE
  6
CONTINUOUS
 62
     7
 10
8948.904885982389
 20
-4644.170790404984
 30
0.0
  0
VERTEX
  5
555
  8
VENUE
  6
CONTINUOUS
 62
     7
 10
8950.788885982389
 20
-4710.59779040498
 30
0.0
  0
VERTEX
  5
556
  8
VENUE
  6
CONTINUOUS
 62
     7
 10
8956.440885982389
 20
-4775.90279040498
 30
0.0
  0
VERTEX
  5
557
  8
VENUE
  6
CONTINUOUS
 62
     7
 10
8965.860885982389
 20
-4840.085790404984
 30
0.0
  0
VERTEX
  5
558
  8
VENUE
  6
CONTINUOUS
 62
     7
 10
8979.048885982389
 20
-4903.145790404982
 30
0.0
  0
VERTEX
  5
559
  8
VENUE
  6
CONTINUOUS
 62
     7
 10
8996.00488598239
 20
-4965.085790404984
 30
0.0
  0
VERTEX
  5
55A
  8
VENUE
  6
CONTINUOUS
 62
     7
 10
9016.72888598239
 20
-5025.90279040498
 30
0.0
  0
VERTEX
  5
55B
  8
VENUE
  6
CONTINUOUS
 62
     7
 10
9041.22088598239
 20
-5085.59779040498
 30
0.0
  0
VERTEX
  5
55C
  8
VENUE
  6
CONTINUOUS
 62
     7
 10
9069.481885982388
 20
-5144.170790404984
 30
0.0
  0
VERTEX
  5
55D
  8
VENUE
  6
CONTINUOUS
 62
     7
 10
9101.00488598239
 20
-5200.651790404983
 30
0.0
  0
VERTEX
  5
55E
  8
VENUE
  6
CONTINUOUS
 62
     7
 10
9135.286885982388
 20
-5254.066790404984
 30
0.0
  0
VERTEX
  5
55F
  8
VENUE
  6
CONTINUOUS
 62
     7
 10
9172.32688598239
 20
-5304.417790404979
 30
0.0
  0
VERTEX
  5
560
  8
VENUE
  6
CONTINUOUS
 62
     7
 10
9212.125885982388
 20
-5351.702790404983
 30
0.0
  0
VERTEX
  5
561
  8
VENUE
  6
CONTINUOUS
 62
     7
 10
9254.682885982389
 20
-5395.923790404981
 30
0.0
  0
VERTEX
  5
562
  8
VENUE
  6
CONTINUOUS
 62
     7
 10
9299.99788598239
 20
-5437.079790404983
 30
0.0
  0
VERTEX
  5
563
  8
VENUE
  6
CONTINUOUS
 62
     7
 10
9348.071885982388
 20
-5475.170790404984
 30
0.0
  0
VERTEX
  5
564
  8
VENUE
  6
CONTINUOUS
 62
     7
 10
9398.904885982389
 20
-5510.195790404985
 30
0.0
  0
VERTEX
  5
565
  8
VENUE
  6
CONTINUOUS
 62
     7
 10
9451.619885982389
 20
-5541.596790404983
 30
0.0
  0
VERTEX
  5
566
  8
VENUE
  6
CONTINUOUS
 62
     7
 10
9505.346885982388
 20
-5568.810790404983
 30
0.0
  0
VERTEX
  5
567
  8
VENUE
  6
CONTINUOUS
 62
     7
 10
9560.081885982388
 20
-5591.837790404985
 30
0.0
  0
VERTEX
  5
568
  8
VENUE
  6
CONTINUOUS
 62
     7
 10
9615.82788598239
 20
-5610.677790404981
 30
0.0
  0
VERTEX
  5
569
  8
VENUE
  6
CONTINUOUS
 62
     7
 10
9672.581885982388
 20
-5625.331790404984
 30
0.0
  0
VERTEX
  5
56A
  8
VENUE
  6
CONTINUOUS
 62
     7
 10
9730.346885982388
 20
-5635.797790404984
 30
0.0
  0
VERTEX
  5
56B
  8
VENUE
  6
CONTINUOUS
 62
     7
 10
9789.119885982389
 20
-5642.077790404983
 30
0.0
  0
VERTEX
  5
56C
  8
VENUE
  6
CONTINUOUS
 62
     7
 10
9848.904885982389
 20
-5644.170790404984
 30
0.0
  0
SEQEND
  5
782
  8
VENUE
  6
CONTINUOUS
 62
     7
  0
POLYLINE
  5
266
  8
VENUE
  6
CONTINUOUS
 62
     7
 66
     1
 10
0.0
 20
0.0
 30
0.0
 70
   128
  0
VERTEX
  5
56D
  8
VENUE
  6
CONTINUOUS
 62
     7
 10
8048.904885982389
 20
-4644.170790404984
 30
0.0
  0
VERTEX
  5
56E
  8
VENUE
  6
CONTINUOUS
 62
     7
 10
8048.904885982389
 20
-5644.170790404984
 30
0.0
  0
VERTEX
  5
56F
  8
VENUE
  6
CONTINUOUS
 62
     7
 10
8108.687885982388
 20
-5642.077790404983
 30
0.0
  0
VERTEX
  5
570
  8
VENUE
  6
CONTINUOUS
 62
     7
 10
8167.46188598239
 20
-5635.797790404984
 30
0.0
  0
VERTEX
  5
571
  8
VENUE
  6
CONTINUOUS
 62
     7
 10
8225.226885982389
 20
-5625.331790404984
 30
0.0
  0
VERTEX
  5
572
  8
VENUE
  6
CONTINUOUS
 62
     7
 10
8281.981885982388
 20
-5610.677790404981
 30
0.0
  0
VERTEX
  5
573
  8
VENUE
  6
CONTINUOUS
 62
     7
 10
8337.726885982389
 20
-5591.837790404985
 30
0.0
  0
VERTEX
  5
574
  8
VENUE
  6
CONTINUOUS
 62
     7
 10
8392.46188598239
 20
-5568.810790404983
 30
0.0
  0
VERTEX
  5
575
  8
VENUE
  6
CONTINUOUS
 62
     7
 10
8446.187885982388
 20
-5541.596790404983
 30
0.0
  0
VERTEX
  5
576
  8
VENUE
  6
CONTINUOUS
 62
     7
 10
8498.904885982389
 20
-5510.195790404985
 30
0.0
  0
VERTEX
  5
577
  8
VENUE
  6
CONTINUOUS
 62
     7
 10
8549.735885982389
 20
-5475.170790404984
 30
0.0
  0
VERTEX
  5
578
  8
VENUE
  6
CONTINUOUS
 62
     7
 10
8597.80988598239
 20
-5437.079790404983
 30
0.0
  0
VERTEX
  5
579
  8
VENUE
  6
CONTINUOUS
 62
     7
 10
8643.124885982388
 20
-5395.923790404981
 30
0.0
  0
VERTEX
  5
57A
  8
VENUE
  6
CONTINUOUS
 62
     7
 10
8685.682885982389
 20
-5351.702790404983
 30
0.0
  0
VERTEX
  5
57B
  8
VENUE
  6
CONTINUOUS
 62
     7
 10
8725.480885982388
 20
-5304.417790404979
 30
0.0
  0
VERTEX
  5
57C
  8
VENUE
  6
CONTINUOUS
 62
     7
 10
8762.521885982389
 20
-5254.066790404984
 30
0.0
  0
VERTEX
  5
57D
  8
VENUE
  6
CONTINUOUS
 62
     7
 10
8796.802885982388
 20
-5200.651790404983
 30
0.0
  0
VERTEX
  5
57E
  8
VENUE
  6
CONTINUOUS
 62
     7
 10
8828.32788598239
 20
-5144.170790404984
 30
0.0
  0
VERTEX
  5
57F
  8
VENUE
  6
CONTINUOUS
 62
     7
 10
8856.58788598239
 20
-5085.59779040498
 30
0.0
  0
VERTEX
  5
580
  8
VENUE
  6
CONTINUOUS
 62
     7
 10
8881.079885982388
 20
-5025.90279040498
 30
0.0
  0
VERTEX
  5
581
  8
VENUE
  6
CONTINUOUS
 62
     7
 10
8901.803885982388
 20
-4965.085790404984
 30
0.0
  0
VERTEX
  5
582
  8
VENUE
  6
CONTINUOUS
 62
     7
 10
8918.759885982388
 20
-4903.145790404982
 30
0.0
  0
VERTEX
  5
583
  8
VENUE
  6
CONTINUOUS
 62
     7
 10
8931.947885982388
 20
-4840.085790404984
 30
0.0
  0
VERTEX
  5
584
  8
VENUE
  6
CONTINUOUS
 62
     7
 10
8941.367885982389
 20
-4775.90279040498
 30
0.0
  0
VERTEX
  5
585
  8
VENUE
  6
CONTINUOUS
 62
     7
 10
8947.019885982389
 20
-4710.59779040498
 30
0.0
  0
VERTEX
  5
586
  8
VENUE
  6
CONTINUOUS
 62
     7
 10
8948.904885982389
 20
-4644.170790404984
 30
0.0
  0
SEQEND
  5
783
  8
VENUE
  6
CONTINUOUS
 62
     7
  0
POLYLINE
  5
267
  8
VENUE
  6
CONTINUOUS
 62
     7
 66
     1
 10
0.0
 20
0.0
 30
0.0
 70
   128
  0
VERTEX
  5
587
  8
VENUE
  6
CONTINUOUS
 62
     7
 10
7998.904885982389
 20
-4644.170790404984
 30
0.0
  0
VERTEX
  5
588
  8
VENUE
  6
CONTINUOUS
 62
     7
 10
7098.904885982389
 20
-4644.170790404984
 30
0.0
  0
VERTEX
  5
589
  8
VENUE
  6
CONTINUOUS
 62
     7
 10
7100.788885982389
 20
-4710.59779040498
 30
0.0
  0
VERTEX
  5
58A
  8
VENUE
  6
CONTINUOUS
 62
     7
 10
7106.440885982389
 20
-4775.90279040498
 30
0.0
  0
VERTEX
  5
58B
  8
VENUE
  6
CONTINUOUS
 62
     7
 10
7115.860885982389
 20
-4840.085790404984
 30
0.0
  0
VERTEX
  5
58C
  8
VENUE
  6
CONTINUOUS
 62
     7
 10
7129.048885982389
 20
-4903.145790404982
 30
0.0
  0
VERTEX
  5
58D
  8
VENUE
  6
CONTINUOUS
 62
     7
 10
7146.004885982389
 20
-4965.085790404984
 30
0.0
  0
VERTEX
  5
58E
  8
VENUE
  6
CONTINUOUS
 62
     7
 10
7166.728885982389
 20
-5025.90279040498
 30
0.0
  0
VERTEX
  5
58F
  8
VENUE
  6
CONTINUOUS
 62
     7
 10
7191.22088598239
 20
-5085.59779040498
 30
0.0
  0
VERTEX
  5
590
  8
VENUE
  6
CONTINUOUS
 62
     7
 10
7219.481885982388
 20
-5144.170790404984
 30
0.0
  0
VERTEX
  5
591
  8
VENUE
  6
CONTINUOUS
 62
     7
 10
7251.004885982389
 20
-5200.651790404983
 30
0.0
  0
VERTEX
  5
592
  8
VENUE
  6
CONTINUOUS
 62
     7
 10
7285.286885982388
 20
-5254.066790404984
 30
0.0
  0
VERTEX
  5
593
  8
VENUE
  6
CONTINUOUS
 62
     7
 10
7322.326885982389
 20
-5304.417790404979
 30
0.0
  0
VERTEX
  5
594
  8
VENUE
  6
CONTINUOUS
 62
     7
 10
7362.125885982388
 20
-5351.702790404983
 30
0.0
  0
VERTEX
  5
595
  8
VENUE
  6
CONTINUOUS
 62
     7
 10
7404.682885982389
 20
-5395.923790404981
 30
0.0
  0
VERTEX
  5
596
  8
VENUE
  6
CONTINUOUS
 62
     7
 10
7449.99788598239
 20
-5437.079790404983
 30
0.0
  0
VERTEX
  5
597
  8
VENUE
  6
CONTINUOUS
 62
     7
 10
7498.071885982388
 20
-5475.170790404984
 30
0.0
  0
VERTEX
  5
598
  8
VENUE
  6
CONTINUOUS
 62
     7
 10
7548.904885982389
 20
-5510.195790404985
 30
0.0
  0
VERTEX
  5
599
  8
VENUE
  6
CONTINUOUS
 62
     7
 10
7601.619885982389
 20
-5541.596790404983
 30
0.0
  0
VERTEX
  5
59A
  8
VENUE
  6
CONTINUOUS
 62
     7
 10
7655.346885982388
 20
-5568.810790404983
 30
0.0
  0
VERTEX
  5
59B
  8
VENUE
  6
CONTINUOUS
 62
     7
 10
7710.081885982388
 20
-5591.837790404985
 30
0.0
  0
VERTEX
  5
59C
  8
VENUE
  6
CONTINUOUS
 62
     7
 10
7765.827885982389
 20
-5610.677790404981
 30
0.0
  0
VERTEX
  5
59D
  8
VENUE
  6
CONTINUOUS
 62
     7
 10
7822.581885982388
 20
-5625.331790404984
 30
0.0
  0
VERTEX
  5
59E
  8
VENUE
  6
CONTINUOUS
 62
     7
 10
7880.346885982388
 20
-5635.797790404984
 30
0.0
  0
VERTEX
  5
59F
  8
VENUE
  6
CONTINUOUS
 62
     7
 10
7939.119885982389
 20
-5642.077790404983
 30
0.0
  0
VERTEX
  5
5A0
  8
VENUE
  6
CONTINUOUS
 62
     7
 10
7998.904885982389
 20
-5644.170790404984
 30
0.0
  0
SEQEND
  5
784
  8
VENUE
  6
CONTINUOUS
 62
     7
  0
POLYLINE
  5
268
  8
VENUE
  6
CONTINUOUS
 62
     7
 66
     1
 10
0.0
 20
0.0
 30
0.0
 70
   128
  0
VERTEX
  5
5A1
  8
VENUE
  6
CONTINUOUS
 62
     7
 10
6198.904885982389
 20
-4644.170790404984
 30
0.0
  0
VERTEX
  5
5A2
  8
VENUE
  6
CONTINUOUS
 62
     7
 10
6198.904885982389
 20
-5644.170790404984
 30
0.0
  0
VERTEX
  5
5A3
  8
VENUE
  6
CONTINUOUS
 62
     7
 10
6258.687885982388
 20
-5642.077790404983
 30
0.0
  0
VERTEX
  5
5A4
  8
VENUE
  6
CONTINUOUS
 62
     7
 10
6317.46188598239
 20
-5635.797790404984
 30
0.0
  0
VERTEX
  5
5A5
  8
VENUE
  6
CONTINUOUS
 62
     7
 10
6375.226885982389
 20
-5625.331790404984
 30
0.0
  0
VERTEX
  5
5A6
  8
VENUE
  6
CONTINUOUS
 62
     7
 10
6431.981885982388
 20
-5610.677790404981
 30
0.0
  0
VERTEX
  5
5A7
  8
VENUE
  6
CONTINUOUS
 62
     7
 10
6487.726885982389
 20
-5591.837790404985
 30
0.0
  0
VERTEX
  5
5A8
  8
VENUE
  6
CONTINUOUS
 62
     7
 10
6542.46188598239
 20
-5568.810790404983
 30
0.0
  0
VERTEX
  5
5A9
  8
VENUE
  6
CONTINUOUS
 62
     7
 10
6596.187885982388
 20
-5541.596790404983
 30
0.0
  0
VERTEX
  5
5AA
  8
VENUE
  6
CONTINUOUS
 62
     7
 10
6648.904885982389
 20
-5510.195790404985
 30
0.0
  0
VERTEX
  5
5AB
  8
VENUE
  6
CONTINUOUS
 62
     7
 10
6699.735885982389
 20
-5475.170790404984
 30
0.0
  0
VERTEX
  5
5AC
  8
VENUE
  6
CONTINUOUS
 62
     7
 10
6747.809885982389
 20
-5437.079790404983
 30
0.0
  0
VERTEX
  5
5AD
  8
VENUE
  6
CONTINUOUS
 62
     7
 10
6793.124885982388
 20
-5395.923790404981
 30
0.0
  0
VERTEX
  5
5AE
  8
VENUE
  6
CONTINUOUS
 62
     7
 10
6835.682885982389
 20
-5351.702790404983
 30
0.0
  0
VERTEX
  5
5AF
  8
VENUE
  6
CONTINUOUS
 62
     7
 10
6875.480885982388
 20
-5304.417790404979
 30
0.0
  0
VERTEX
  5
5B0
  8
VENUE
  6
CONTINUOUS
 62
     7
 10
6912.521885982389
 20
-5254.066790404984
 30
0.0
  0
VERTEX
  5
5B1
  8
VENUE
  6
CONTINUOUS
 62
     7
 10
6946.802885982388
 20
-5200.651790404983
 30
0.0
  0
VERTEX
  5
5B2
  8
VENUE
  6
CONTINUOUS
 62
     7
 10
6978.327885982389
 20
-5144.170790404984
 30
0.0
  0
VERTEX
  5
5B3
  8
VENUE
  6
CONTINUOUS
 62
     7
 10
7006.58788598239
 20
-5085.59779040498
 30
0.0
  0
VERTEX
  5
5B4
  8
VENUE
  6
CONTINUOUS
 62
     7
 10
7031.079885982388
 20
-5025.90279040498
 30
0.0
  0
VERTEX
  5
5B5
  8
VENUE
  6
CONTINUOUS
 62
     7
 10
7051.803885982388
 20
-4965.085790404984
 30
0.0
  0
VERTEX
  5
5B6
  8
VENUE
  6
CONTINUOUS
 62
     7
 10
7068.759885982388
 20
-4903.145790404982
 30
0.0
  0
VERTEX
  5
5B7
  8
VENUE
  6
CONTINUOUS
 62
     7
 10
7081.947885982388
 20
-4840.085790404984
 30
0.0
  0
VERTEX
  5
5B8
  8
VENUE
  6
CONTINUOUS
 62
     7
 10
7091.367885982389
 20
-4775.90279040498
 30
0.0
  0
VERTEX
  5
5B9
  8
VENUE
  6
CONTINUOUS
 62
     7
 10
7097.019885982389
 20
-4710.59779040498
 30
0.0
  0
VERTEX
  5
5BA
  8
VENUE
  6
CONTINUOUS
 62
     7
 10
7098.904885982389
 20
-4644.170790404984
 30
0.0
  0
SEQEND
  5
785
  8
VENUE
  6
CONTINUOUS
 62
     7
  0
LINE
  5
269
  8
VENUE
  6
CONTINUOUS
 62
     7
 10
15940.90488598239
 20
9905.829209595018
 30
0.0
 11
15940.90488598239
 21
8388.829209595018
 31
0.0
  0
LINE
  5
26A
  8
VENUE
  6
CONTINUOUS
 62
     7
 10
15220.90488598239
 20
9905.829209595018
 30
0.0
 11
15220.90488598239
 21
8388.829209595018
 31
0.0
  0
LINE
  5
26B
  8
VENUE
  6
CONTINUOUS
 62
     7
 10
15940.90488598239
 20
12168.82920959502
 30
0.0
 11
15940.90488598239
 21
11205.82920959502
 31
0.0
  0
LINE
  5
26C
  8
VENUE
  6
CONTINUOUS
 62
     7
 10
15220.90488598239
 20
11205.82920959502
 30
0.0
 11
15220.90488598239
 21
12168.82920959502
 31
0.0
  0
LINE
  5
26D
  8
VENUE
  6
CONTINUOUS
 62
     7
 10
15940.90488598239
 20
12168.82920959502
 30
0.0
 11
15220.90488598239
 21
12168.82920959502
 31
0.0
  0
LINE
  5
26E
  8
VENUE
  6
CONTINUOUS
 62
     7
 10
15940.90488598239
 20
8388.829209595018
 30
0.0
 11
15230.90488598239
 21
8388.829209595018
 31
0.0
  0
LINE
  5
26F
  8
VENUE
  6
CONTINUOUS
 62
     7
 10
15940.90488598239
 20
6138.829209595018
 30
0.0
 11
15230.90488598239
 21
6138.829209595018
 31
0.0
  0
LINE
  5
270
  8
VENUE
  6
CONTINUOUS
 62
     7
 10
15220.90488598239
 20
6138.829209595018
 30
0.0
 11
15220.90488598239
 21
4955.829209595018
 31
0.0
  0
LINE
  5
271
  8
VENUE
  6
CONTINUOUS
 62
     7
 10
14740.90488598239
 20
3655.829209595018
 30
0.0
 11
14740.90488598239
 21
4805.829209595018
 31
0.0
  0
LINE
  5
272
  8
VENUE
  6
CONTINUOUS
 62
     7
 10
15230.90488598239
 20
6388.829209595018
 30
0.0
 11
14940.90488598239
 21
6388.829209595018
 31
0.0
  0
LINE
  5
273
  8
VENUE
  6
CONTINUOUS
 62
     7
 10
15230.90488598239
 20
6388.829209595018
 30
0.0
 11
15230.90488598239
 21
6338.829209595018
 31
0.0
  0
LINE
  5
274
  8
VENUE
  6
CONTINUOUS
 62
     7
 10
15230.90488598239
 20
8188.829209595018
 30
0.0
 11
14940.90488598239
 21
8188.829209595018
 31
0.0
  0
LINE
  5
275
  8
VENUE
  6
CONTINUOUS
 62
     7
 10
15230.90488598239
 20
8188.829209595018
 30
0.0
 11
15230.90488598239
 21
8238.829209595018
 31
0.0
  0
LINE
  5
276
  8
VENUE
  6
CONTINUOUS
 62
     7
 10
14940.90488598239
 20
6388.829209595018
 30
0.0
 11
14040.90488598239
 21
6388.829209595018
 31
0.0
  0
LINE
  5
277
  8
VENUE
  6
CONTINUOUS
 62
     7
 10
14940.90488598239
 20
8188.829209595018
 30
0.0
 11
14040.90488598239
 21
8188.829209595018
 31
0.0
  0
ARC
  5
278
  8
VENUE
  6
CONTINUOUS
 62
     7
 10
14940.90488598239
 20
6388.829209595018
 30
0.0
 40
900.0
 50
90.0
 51
180.0
  0
ARC
  5
279
  8
VENUE
  6
CONTINUOUS
 62
     7
 10
14940.90488598239
 20
8188.829209595018
 30
0.0
 40
900.0
 50
180.0
 51
270.0
  0
LINE
  5
27A
  8
VENUE
  6
CONTINUOUS
 62
     7
 10
14940.90488598239
 20
12368.82920959502
 30
0.0
 11
14040.90488598239
 21
12368.82920959502
 31
0.0
  0
LINE
  5
27B
  8
VENUE
  6
CONTINUOUS
 62
     7
 10
14940.90488598239
 20
14168.82920959502
 30
0.0
 11
14040.90488598239
 21
14168.82920959502
 31
0.0
  0
ARC
  5
27C
  8
VENUE
  6
CONTINUOUS
 62
     7
 10
14940.90488598239
 20
12368.82920959502
 30
0.0
 40
900.0
 50
90.0
 51
180.0
  0
ARC
  5
27D
  8
VENUE
  6
CONTINUOUS
 62
     7
 10
14940.90488598239
 20
14168.82920959502
 30
0.0
 40
900.0
 50
180.0
 51
270.0
  0
LINE
  5
27E
  8
VENUE
  6
ラインタイプ-1
 62
     7
 10
15406.90488598239
 20
2455.829209595018
 30
0.0
 11
15406.90488598239
 21
3655.829209595018
 31
0.0
  0
LINE
  5
27F
  8
VENUE
  6
ラインタイプ-1
 62
     7
 10
15206.90488598239
 20
2455.829209595018
 30
0.0
 11
15206.90488598239
 21
3655.829209595018
 31
0.0
  0
LINE
  5
280
  8
VENUE
  6
ラインタイプ-1
 62
     7
 10
15206.90488598239
 20
2455.829209595018
 30
0.0
 11
15406.90488598239
 21
2455.829209595018
 31
0.0
  0
LINE
  5
281
  8
VENUE
  6
ラインタイプ-1
 62
     7
 10
15206.90488598239
 20
2455.829209595018
 30
0.0
 11
14306.90488598239
 21
2455.829209595018
 31
0.0
  0
LINE
  5
282
  8
VENUE
  6
ラインタイプ-1
 62
     7
 10
15206.90488598239
 20
655.8292095950183
 30
0.0
 11
15406.90488598239
 21
655.8292095950183
 31
0.0
  0
LINE
  5
283
  8
VENUE
  6
ラインタイプ-1
 62
     7
 10
15206.90488598239
 20
655.8292095950183
 30
0.0
 11
14306.90488598239
 21
655.8292095950183
 31
0.0
  0
LINE
  5
284
  8
VENUE
  6
ラインタイプ-1
 62
     7
 10
15406.90488598239
 20
-1644.170790404982
 30
0.0
 11
15406.90488598239
 21
655.8292095950183
 31
0.0
  0
LINE
  5
285
  8
VENUE
  6
ラインタイプ-1
 62
     7
 10
15206.90488598239
 20
-1644.170790404982
 30
0.0
 11
15206.90488598239
 21
655.8292095950183
 31
0.0
  0
ARC
  5
286
  8
VENUE
  6
ラインタイプ-1
 62
     7
 10
15206.90488598239
 20
655.8292095950183
 30
0.0
 40
900.0
 50
90.0
 51
180.0
  0
ARC
  5
287
  8
VENUE
  6
ラインタイプ-1
 62
     7
 10
15206.90488598239
 20
2455.829209595018
 30
0.0
 40
900.0
 50
180.0
 51
270.0
  0
LINE
  5
288
  8
VENUE
  6
CONTINUOUS
 62
     7
 10
30524.90488598239
 20
20118.82920959502
 30
0.0
 11
30524.90488598239
 21
8955.829209595018
 31
0.0
  0
LINE
  5
289
  8
VENUE
  6
CONTINUOUS
 62
     7
 10
29374.90488598239
 20
16955.82920959502
 30
0.0
 11
29374.90488598239
 21
11205.82920959502
 31
0.0
  0
LINE
  5
28A
  8
VENUE
  6
CONTINUOUS
 62
     7
 10
29574.90488598239
 20
16955.82920959502
 30
0.0
 11
29574.90488598239
 21
11205.82920959502
 31
0.0
  0
LINE
  5
28B
  8
VENUE
  6
CONTINUOUS
 62
     7
 10
30224.90488598239
 20
16955.82920959502
 30
0.0
 11
30224.90488598239
 21
11205.82920959502
 31
0.0
  0
LINE
  5
28C
  8
VENUE
  6
CONTINUOUS
 62
     7
 10
30524.90488598239
 20
8755.829209595018
 30
0.0
 11
30524.90488598239
 21
3655.829209595018
 31
0.0
  0
LINE
  5
28D
  8
VENUE
  6
CONTINUOUS
 62
     7
 10
30224.90488598239
 20
8805.829209595018
 30
0.0
 11
30224.90488598239
 21
8755.829209595018
 31
0.0
  0
LINE
  5
28E
  8
VENUE
  6
CONTINUOUS
 62
     7
 10
22106.90488598239
 20
-1544.170790404982
 30
0.0
 11
23106.90488598239
 21
-1544.170790404982
 31
0.0
  0
LINE
  5
28F
  8
VENUE
  6
CONTINUOUS
 62
     7
 10
22106.90488598239
 20
-2444.170790404982
 30
0.0
 11
22106.90488598239
 21
-1544.170790404982
 31
0.0
  0
LINE
  5
290
  8
VENUE
  6
CONTINUOUS
 62
     7
 10
23106.90488598239
 20
-1544.170790404982
 30
0.0
 11
23106.90488598239
 21
-2444.170790404982
 31
0.0
  0
LINE
  5
291
  8
VENUE
  6
CONTINUOUS
 62
     7
 10
23106.90488598239
 20
-2444.170790404982
 30
0.0
 11
28956.90488598239
 21
-2444.170790404982
 31
0.0
  0
LINE
  5
292
  8
VENUE
  6
CONTINUOUS
 62
     7
 10
29740.90488598239
 20
-1594.170790404982
 30
0.0
 11
29740.90488598239
 21
2555.829209595018
 31
0.0
  0
LINE
  5
293
  8
VENUE
  6
CONTINUOUS
 62
     7
 10
29940.90488598239
 20
-1594.170790404982
 30
0.0
 11
29940.90488598239
 21
2555.829209595018
 31
0.0
  0
LINE
  5
294
  8
VENUE
  6
CONTINUOUS
 62
     7
 10
29940.90488598239
 20
2555.829209595018
 30
0.0
 11
29940.90488598239
 21
3355.829209595018
 31
0.0
  0
LINE
  5
295
  8
VENUE
  6
CONTINUOUS
 62
     7
 10
30224.90488598239
 20
16955.82920959502
 30
0.0
 11
29574.90488598239
 21
16955.82920959502
 31
0.0
  0
LINE
  5
296
  8
VENUE
  6
CONTINUOUS
 62
     7
 10
29374.90488598239
 20
16955.82920959502
 30
0.0
 11
29220.90488598239
 21
16955.82920959502
 31
0.0
  0
LINE
  5
297
  8
VENUE
  6
CONTINUOUS
 62
     7
 10
29224.90488598239
 20
18255.82920959502
 30
0.0
 11
30224.90488598239
 21
18255.82920959502
 31
0.0
  0
LINE
  5
298
  8
VENUE
  6
CONTINUOUS
 62
     7
 10
29224.90488598239
 20
18255.82920959502
 30
0.0
 11
29224.90488598239
 21
16955.82920959502
 31
0.0
  0
LINE
  5
299
  8
VENUE
  6
CONTINUOUS
 62
     7
 10
29574.90488598239
 20
24655.82920959502
 30
0.0
 11
30224.90488598239
 21
24655.82920959502
 31
0.0
  0
LINE
  5
29A
  8
VENUE
  6
CONTINUOUS
 62
     7
 10
29224.90488598239
 20
24655.82920959502
 30
0.0
 11
29374.90488598239
 21
24655.82920959502
 31
0.0
  0
LINE
  5
29B
  8
VENUE
  6
CONTINUOUS
 62
     7
 10
30224.90488598239
 20
23305.82920959502
 30
0.0
 11
29574.90488598239
 21
23305.82920959502
 31
0.0
  0
LINE
  5
29C
  8
VENUE
  6
CONTINUOUS
 62
     7
 10
29374.90488598239
 20
23305.82920959502
 30
0.0
 11
29224.90488598239
 21
23305.82920959502
 31
0.0
  0
LINE
  5
29D
  8
VENUE
  6
CONTINUOUS
 62
     7
 10
29224.90488598239
 20
9905.829209595018
 30
0.0
 11
29224.90488598239
 21
11205.82920959502
 31
0.0
  0
LINE
  5
29E
  8
VENUE
  6
CONTINUOUS
 62
     7
 10
29224.90488598239
 20
9905.829209595018
 30
0.0
 11
29374.90488598239
 21
9905.829209595018
 31
0.0
  0
LINE
  5
29F
  8
VENUE
  6
CONTINUOUS
 62
     7
 10
29224.90488598239
 20
11205.82920959502
 30
0.0
 11
29374.90488598239
 21
11205.82920959502
 31
0.0
  0
LINE
  5
2A0
  8
VENUE
  6
CONTINUOUS
 62
     7
 10
29574.90488598239
 20
11205.82920959502
 30
0.0
 11
30224.90488598239
 21
11205.82920959502
 31
0.0
  0
LINE
  5
2A1
  8
VENUE
  6
CONTINUOUS
 62
     7
 10
15220.90488598239
 20
9905.829209595018
 30
0.0
 11
15940.90488598239
 21
9905.829209595018
 31
0.0
  0
LINE
  5
2A2
  8
VENUE
  6
CONTINUOUS
 62
     7
 10
16140.90488598239
 20
9905.829209595018
 30
0.0
 11
16240.90488598239
 21
9905.829209595018
 31
0.0
  0
LINE
  5
2A3
  8
VENUE
  6
CONTINUOUS
 62
     7
 10
15220.90488598239
 20
11205.82920959502
 30
0.0
 11
15940.90488598239
 21
11205.82920959502
 31
0.0
  0
LINE
  5
2A4
  8
VENUE
  6
CONTINUOUS
 62
     7
 10
16140.90488598239
 20
11205.82920959502
 30
0.0
 11
16240.90488598239
 21
11205.82920959502
 31
0.0
  0
LINE
  5
2A5
  8
VENUE
  6
ラインタイプ-1
 62
   161
 10
24640.90488598239
 20
4105.829209595018
 30
0.0
 11
20640.90488598239
 21
4105.829209595018
 31
0.0
  0
LINE
  5
2A6
  8
VENUE
  6
ラインタイプ-1
 62
   161
 10
24640.90488598239
 20
4255.829209595018
 30
0.0
 11
20640.90488598239
 21
4255.829209595018
 31
0.0
  0
LINE
  5
2A7
  8
VENUE
  6
CONTINUOUS
 62
     7
 10
30524.90488598239
 20
3655.829209595018
 30
0.0
 11
29940.90488598239
 21
3655.829209595018
 31
0.0
  0
LINE
  5
2A8
  8
VENUE
  6
CONTINUOUS
 62
     7
 10
16240.90488598239
 20
3655.829209595018
 30
0.0
 11
14740.90488598239
 21
3655.829209595018
 31
0.0
  0
LINE
  5
2A9
  8
VENUE
  6
CONTINUOUS
 62
     7
 10
14740.90488598239
 20
4805.829209595018
 30
0.0
 11
14940.90488598239
 21
4805.829209595018
 31
0.0
  0
LINE
  5
2AA
  8
VENUE
  6
CONTINUOUS
 62
     7
 10
15940.90488598239
 20
4955.829209595018
 30
0.0
 11
15220.90488598239
 21
4955.829209595018
 31
0.0
  0
LINE
  5
2AB
  8
VENUE
  6
CONTINUOUS
 62
     7
 10
29224.90488598239
 20
3655.829209595018
 30
0.0
 11
29224.90488598239
 21
4955.829209595018
 31
0.0
  0
LINE
  5
2AC
  8
VENUE
  6
CONTINUOUS
 62
     7
 10
29574.90488598239
 20
4955.829209595018
 30
0.0
 11
30224.90488598239
 21
4955.829209595018
 31
0.0
  0
LINE
  5
2AD
  8
VENUE
  6
CONTINUOUS
 62
     7
 10
29374.90488598239
 20
9905.829209595018
 30
0.0
 11
29374.90488598239
 21
8805.829209595018
 31
0.0
  0
LINE
  5
2AE
  8
VENUE
  6
CONTINUOUS
 62
     7
 10
29374.90488598239
 20
8805.829209595018
 30
0.0
 11
30224.90488598239
 21
8805.829209595018
 31
0.0
  0
LINE
  5
2AF
  8
VENUE
  6
CONTINUOUS
 62
     7
 10
29574.90488598239
 20
9905.829209595018
 30
0.0
 11
29574.90488598239
 21
8955.829209595018
 31
0.0
  0
LINE
  5
2B0
  8
VENUE
  6
CONTINUOUS
 62
     7
 10
29574.90488598239
 20
9905.829209595018
 30
0.0
 11
30224.90488598239
 21
9905.829209595018
 31
0.0
  0
LINE
  5
2B1
  8
VENUE
  6
CONTINUOUS
 62
     7
 10
29574.90488598239
 20
8955.829209595018
 30
0.0
 11
30224.90488598239
 21
8955.829209595018
 31
0.0
  0
LINE
  5
2B2
  8
VENUE
  6
CONTINUOUS
 62
     7
 10
29374.90488598239
 20
6205.829209595018
 30
0.0
 11
29374.90488598239
 21
4955.829209595018
 31
0.0
  0
LINE
  5
2B3
  8
VENUE
  6
CONTINUOUS
 62
     7
 10
29374.90488598239
 20
6205.829209595018
 30
0.0
 11
30524.90488598239
 21
6205.829209595018
 31
0.0
  0
LINE
  5
2B4
  8
VENUE
  6
CONTINUOUS
 62
     7
 10
29574.90488598239
 20
6055.829209595018
 30
0.0
 11
29574.90488598239
 21
4955.829209595018
 31
0.0
  0
LINE
  5
2B5
  8
VENUE
  6
CONTINUOUS
 62
     7
 10
29574.90488598239
 20
6055.829209595018
 30
0.0
 11
30224.90488598239
 21
6055.829209595018
 31
0.0
  0
LINE
  5
2B6
  8
VENUE
  6
CONTINUOUS
 62
     7
 10
30224.90488598239
 20
4955.829209595018
 30
0.0
 11
30224.90488598239
 21
6055.829209595018
 31
0.0
  0
LINE
  5
2B7
  8
VENUE
  6
CONTINUOUS
 62
     7
 10
29224.90488598239
 20
4955.829209595018
 30
0.0
 11
29374.90488598239
 21
4955.829209595018
 31
0.0
  0
LINE
  5
2B8
  8
VENUE
  6
CONTINUOUS
 62
     7
 10
30106.90488598239
 20
-1594.170790404982
 30
0.0
 11
29940.90488598239
 21
-1594.170790404982
 31
0.0
  0
LINE
  5
2B9
  8
VENUE
  6
CONTINUOUS
 62
     7
 10
29740.90488598239
 20
-1594.170790404982
 30
0.0
 11
28956.90488598239
 21
-1594.170790404982
 31
0.0
  0
LINE
  5
2BA
  8
VENUE
  6
CONTINUOUS
 62
     7
 10
29740.90488598239
 20
2555.829209595018
 30
0.0
 11
29940.90488598239
 21
2555.829209595018
 31
0.0
  0
LINE
  5
2BB
  8
VENUE
  6
CONTINUOUS
 62
     7
 10
29940.90488598239
 20
3355.829209595018
 30
0.0
 11
30740.90488598239
 21
3355.829209595018
 31
0.0
  0
LINE
  5
2BC
  8
VENUE
  6
CONTINUOUS
 62
     7
 10
29940.90488598239
 20
3355.829209595018
 30
0.0
 11
29940.90488598239
 21
3655.829209595018
 31
0.0
  0
LINE
  5
2BD
  8
VENUE
  6
CONTINUOUS
 62
     7
 10
29740.90488598239
 20
3355.829209595018
 30
0.0
 11
29740.90488598239
 21
3655.829209595018
 31
0.0
  0
LINE
  5
2BE
  8
VENUE
  6
CONTINUOUS
 62
     7
 10
29940.90488598239
 20
3355.829209595018
 30
0.0
 11
29740.90488598239
 21
3355.829209595018
 31
0.0
  0
LINE
  5
2BF
  8
VENUE
  6
CONTINUOUS
 62
     7
 10
29224.90488598239
 20
3655.829209595018
 30
0.0
 11
29740.90488598239
 21
3655.829209595018
 31
0.0
  0
ARC
  5
2C0
  8
VENUE
  6
CONTINUOUS
 62
     7
 10
29940.90488598239
 20
3355.829209595018
 30
0.0
 40
800.0
 50
270.0
 51
0.0
  0
LINE
  5
2C1
  8
VENUE
  6
ラインタイプ-1
 62
   161
 10
16240.90488598239
 20
4105.829209595018
 30
0.0
 11
18840.90488598239
 21
4105.829209595018
 31
0.0
  0
LINE
  5
2C2
  8
VENUE
  6
ラインタイプ-1
 62
   161
 10
18840.90488598239
 20
4255.829209595018
 30
0.0
 11
16240.90488598239
 21
4255.829209595018
 31
0.0
  0
LINE
  5
2C3
  8
VENUE
  6
ラインタイプ-1
 62
   161
 10
29224.90488598239
 20
4255.829209595018
 30
0.0
 11
26524.90488598239
 21
4255.829209595018
 31
0.0
  0
LINE
  5
2C4
  8
VENUE
  6
ラインタイプ-1
 62
   161
 10
26524.90488598239
 20
4255.829209595018
 30
0.0
 11
26524.90488598239
 21
3255.829209595018
 31
0.0
  0
LINE
  5
2C5
  8
VENUE
  6
ラインタイプ-1
 62
   161
 10
26524.90488598239
 20
4105.829209595018
 30
0.0
 11
29224.90488598239
 21
4105.829209595018
 31
0.0
  0
LINE
  5
2C6
  8
VENUE
  6
ラインタイプ-1
 62
   161
 10
18840.90488598239
 20
4255.829209595018
 30
0.0
 11
18840.90488598239
 21
3255.829209595018
 31
0.0
  0
LINE
  5
2C7
  8
VENUE
  6
ラインタイプ-1
 62
   161
 10
20640.90488598239
 20
4255.829209595018
 30
0.0
 11
20640.90488598239
 21
3255.829209595018
 31
0.0
  0
LINE
  5
2C8
  8
VENUE
  6
ラインタイプ-1
 62
   161
 10
24640.90488598239
 20
4255.829209595018
 30
0.0
 11
24640.90488598239
 21
3255.829209595018
 31
0.0
  0
LINE
  5
2C9
  8
VENUE
  6
ラインタイプ-1
 62
   161
 10
18840.90488598239
 20
4255.829209595018
 30
0.0
 11
20640.90488598239
 21
4255.829209595018
 31
0.0
  0
LINE
  5
2CA
  8
VENUE
  6
CONTINUOUS
 62
     7
 10
19906.90488598239
 20
-9194.170790404984
 30
0.0
 11
13840.90488598239
 21
-9194.170790404984
 31
0.0
  0
LINE
  5
2CB
  8
VENUE
  6
CONTINUOUS
 62
     7
 10
39524.90488598239
 20
17305.82920959502
 30
0.0
 11
39524.90488598239
 21
5505.829209595018
 31
0.0
  0
LINE
  5
2CC
  8
VENUE
  6
CONTINUOUS
 62
     7
 10
35924.90488598239
 20
1005.829209595018
 30
0.0
 11
35924.90488598239
 21
-2494.170790404982
 31
0.0
  0
LINE
  5
2CD
  8
VENUE
  6
CONTINUOUS
 62
     7
 10
33906.90488598239
 20
-2494.170790404982
 30
0.0
 11
35924.90488598239
 21
-2494.170790404982
 31
0.0
  0
LINE
  5
2CE
  8
VENUE
  6
CONTINUOUS
 62
     7
 10
32824.90488598239
 20
5505.829209595018
 30
0.0
 11
39524.90488598239
 21
5505.829209595018
 31
0.0
  0
LINE
  5
2CF
  8
VENUE
  6
CONTINUOUS
 62
     7
 10
31406.90488598239
 20
-2094.170790404982
 30
0.0
 11
34774.90488598239
 21
-2094.170790404982
 31
0.0
  0
LINE
  5
2D0
  8
VENUE
  6
CONTINUOUS
 62
     7
 10
35524.90488598239
 20
805.8292095950183
 30
0.0
 11
35524.90488598239
 21
-1344.170790404982
 31
0.0
  0
LINE
  5
2D1
  8
VENUE
  6
CONTINUOUS
 62
     7
 10
39224.90488598239
 20
5805.829209595018
 30
0.0
 11
32724.90488598239
 21
5805.829209595018
 31
0.0
  0
LINE
  5
2D2
  8
VENUE
  6
CONTINUOUS
 62
     7
 10
32724.90488598239
 20
5805.829209595018
 30
0.0
 11
32724.90488598239
 21
6305.829209595018
 31
0.0
  0
LINE
  5
2D3
  8
VENUE
  6
CONTINUOUS
 62
     7
 10
39224.90488598239
 20
17005.82920959502
 30
0.0
 11
39224.90488598239
 21
11255.82920959502
 31
0.0
  0
LINE
  5
2D4
  8
VENUE
  6
CONTINUOUS
 62
     7
 10
32524.90488598239
 20
27205.82920959502
 30
0.0
 11
32524.90488598239
 21
21705.82920959502
 31
0.0
  0
LINE
  5
2D5
  8
VENUE
  6
CONTINUOUS
 62
     7
 10
38374.90488598239
 20
28668.82920959502
 30
0.0
 11
38374.90488598239
 21
25155.82920959502
 31
0.0
  0
LINE
  5
2D6
  8
VENUE
  6
CONTINUOUS
 62
     7
 10
32924.90488598239
 20
25155.82920959502
 30
0.0
 11
38374.90488598239
 21
25155.82920959502
 31
0.0
  0
LINE
  5
2D7
  8
VENUE
  6
CONTINUOUS
 62
     7
 10
37974.90488598239
 20
28268.82920959502
 30
0.0
 11
37974.90488598239
 21
25455.82920959502
 31
0.0
  0
LINE
  5
2D8
  8
VENUE
  6
CONTINUOUS
 62
     7
 10
37974.90488598239
 20
25455.82920959502
 30
0.0
 11
32724.90488598239
 21
25455.82920959502
 31
0.0
  0
LINE
  5
2D9
  8
VENUE
  6
CONTINUOUS
 62
     7
 10
30274.90488598239
 20
29718.82920959502
 30
0.0
 11
30274.90488598239
 21
30118.82920959502
 31
0.0
  0
LINE
  5
2DA
  8
VENUE
  6
CONTINUOUS
 62
     7
 10
30524.90488598239
 20
29718.82920959502
 30
0.0
 11
30524.90488598239
 21
29818.82920959502
 31
0.0
  0
LINE
  5
2DB
  8
VENUE
  6
CONTINUOUS
 62
     7
 10
30524.90488598239
 20
29818.82920959502
 30
0.0
 11
32220.90488598239
 21
29818.82920959502
 31
0.0
  0
LINE
  5
2DC
  8
VENUE
  6
CONTINUOUS
 62
     7
 10
30524.90488598239
 20
30018.82920959502
 30
0.0
 11
32420.90488598239
 21
30018.82920959502
 31
0.0
  0
LINE
  5
2DD
  8
VENUE
  6
CONTINUOUS
 62
     7
 10
32220.90488598239
 20
29818.82920959502
 30
0.0
 11
32220.90488598239
 21
28268.82920959502
 31
0.0
  0
LINE
  5
2DE
  8
VENUE
  6
CONTINUOUS
 62
     7
 10
34374.90488598239
 20
28268.82920959502
 30
0.0
 11
37974.90488598239
 21
28268.82920959502
 31
0.0
  0
LINE
  5
2DF
  8
VENUE
  6
CONTINUOUS
 62
     7
 10
32724.90488598239
 20
25455.82920959502
 30
0.0
 11
32724.90488598239
 21
27205.82920959502
 31
0.0
  0
LINE
  5
2E0
  8
VENUE
  6
CONTINUOUS
 62
     7
 10
32724.90488598239
 20
27205.82920959502
 30
0.0
 11
32524.90488598239
 21
27205.82920959502
 31
0.0
  0
LINE
  5
2E1
  8
VENUE
  6
CONTINUOUS
 62
     7
 10
32724.90488598239
 20
27205.82920959502
 30
0.0
 11
32724.90488598239
 21
28005.82920959502
 31
0.0
  0
LINE
  5
2E2
  8
VENUE
  6
CONTINUOUS
 62
     7
 10
32724.90488598239
 20
28005.82920959502
 30
0.0
 11
32724.90488598239
 21
28268.82920959502
 31
0.0
  0
LINE
  5
2E3
  8
VENUE
  6
CONTINUOUS
 62
     7
 10
32724.90488598239
 20
28005.82920959502
 30
0.0
 11
32524.90488598239
 21
28005.82920959502
 31
0.0
  0
LINE
  5
2E4
  8
VENUE
  6
CONTINUOUS
 62
     7
 10
32524.90488598239
 20
28005.82920959502
 30
0.0
 11
32524.90488598239
 21
28268.82920959502
 31
0.0
  0
LINE
  5
2E5
  8
VENUE
  6
CONTINUOUS
 62
     7
 10
32524.90488598239
 20
28268.82920959502
 30
0.0
 11
32224.90488598239
 21
28268.82920959502
 31
0.0
  0
LINE
  5
2E6
  8
VENUE
  6
CONTINUOUS
 62
     7
 10
32924.90488598239
 20
28668.82920959502
 30
0.0
 11
38374.90488598239
 21
28668.82920959502
 31
0.0
  0
LINE
  5
2E7
  8
VENUE
  6
CONTINUOUS
 62
     7
 10
32524.90488598239
 20
28468.82920959502
 30
0.0
 11
32524.90488598239
 21
30118.82920959502
 31
0.0
  0
LINE
  5
2E8
  8
VENUE
  6
CONTINUOUS
 62
     7
 10
32924.90488598239
 20
28668.82920959502
 30
0.0
 11
32924.90488598239
 21
30518.82920959502
 31
0.0
  0
LINE
  5
2E9
  8
VENUE
  6
CONTINUOUS
 62
     7
 10
32420.90488598239
 20
30018.82920959502
 30
0.0
 11
32420.90488598239
 21
28468.82920959502
 31
0.0
  0
LINE
  5
2EA
  8
VENUE
  6
CONTINUOUS
 62
     7
 10
32524.90488598239
 20
28468.82920959502
 30
0.0
 11
32420.90488598239
 21
28468.82920959502
 31
0.0
  0
LINE
  5
2EB
  8
VENUE
  6
CONTINUOUS
 62
     7
 10
32524.90488598239
 20
21705.82920959502
 30
0.0
 11
32924.90488598239
 21
21705.82920959502
 31
0.0
  0
LINE
  5
2EC
  8
VENUE
  6
CONTINUOUS
 62
     7
 10
33124.90488598239
 20
15905.82920959502
 30
0.0
 11
38924.90488598239
 21
15905.82920959502
 31
0.0
  0
LINE
  5
2ED
  8
VENUE
  6
CONTINUOUS
 62
     7
 10
32724.90488598239
 20
6305.829209595018
 30
0.0
 11
32524.90488598239
 21
6305.829209595018
 31
0.0
  0
LINE
  5
2EE
  8
VENUE
  6
CONTINUOUS
 62
     7
 10
35224.90488598239
 20
10155.82920959502
 30
0.0
 11
35224.90488598239
 21
9105.829209595018
 31
0.0
  0
LINE
  5
2EF
  8
VENUE
  6
CONTINUOUS
 62
     7
 10
35224.90488598239
 20
9105.829209595018
 30
0.0
 11
32724.90488598239
 21
9105.829209595018
 31
0.0
  0
LINE
  5
2F0
  8
VENUE
  6
CONTINUOUS
 62
     7
 10
35724.90488598239
 20
13155.82920959502
 30
0.0
 11
32924.90488598239
 21
13155.82920959502
 31
0.0
  0
LINE
  5
2F1
  8
VENUE
  6
CONTINUOUS
 62
     7
 10
37224.90488598239
 20
10355.82920959502
 30
0.0
 11
37224.90488598239
 21
12955.82920959502
 31
0.0
  0
LINE
  5
2F2
  8
VENUE
  6
CONTINUOUS
 62
     7
 10
37424.90488598239
 20
10355.82920959502
 30
0.0
 11
37424.90488598239
 21
11105.82920959502
 31
0.0
  0
LINE
  5
2F3
  8
VENUE
  6
CONTINUOUS
 62
     7
 10
32724.90488598239
 20
28005.82920959502
 30
0.0
 11
33524.90488598239
 21
28005.82920959502
 31
0.0
  0
ARC
  5
2F4
  8
VENUE
  6
CONTINUOUS
 62
     7
 10
32724.90488598239
 20
28005.82920959502
 30
0.0
 40
800.0
 50
270.0
 51
0.0
  0
LINE
  5
2F5
  8
VENUE
  6
CONTINUOUS
 62
     7
 10
38924.90488598239
 20
17005.82920959502
 30
0.0
 11
38474.90488598239
 21
17005.82920959502
 31
0.0
  0
LINE
  5
2F6
  8
VENUE
  6
CONTINUOUS
 62
     7
 10
39224.90488598239
 20
18055.82920959502
 30
0.0
 11
38474.90488598239
 21
18055.82920959502
 31
0.0
  0
LINE
  5
2F7
  8
VENUE
  6
CONTINUOUS
 62
     7
 10
38474.90488598239
 20
17005.82920959502
 30
0.0
 11
38474.90488598239
 21
18055.82920959502
 31
0.0
  0
LINE
  5
2F8
  8
VENUE
  6
CONTINUOUS
 62
     7
 10
39224.90488598239
 20
19605.82920959502
 30
0.0
 11
39224.90488598239
 21
21705.82920959502
 31
0.0
  0
LINE
  5
2F9
  8
VENUE
  6
CONTINUOUS
 62
     7
 10
33724.90488598239
 20
21705.82920959502
 30
0.0
 11
33724.90488598239
 21
18905.82920959502
 31
0.0
  0
LINE
  5
2FA
  8
VENUE
  6
CONTINUOUS
 62
     7
 10
33124.90488598239
 20
18905.82920959502
 30
0.0
 11
33724.90488598239
 21
18905.82920959502
 31
0.0
  0
LINE
  5
2FB
  8
VENUE
  6
CONTINUOUS
 62
     7
 10
30524.90488598239
 20
8955.829209595018
 30
0.0
 11
32524.90488598239
 21
8955.829209595018
 31
0.0
  0
LINE
  5
2FC
  8
VENUE
  6
CONTINUOUS
 62
     7
 10
30224.90488598239
 20
8755.829209595018
 30
0.0
 11
30724.90488598239
 21
8755.829209595018
 31
0.0
  0
LINE
  5
2FD
  8
VENUE
  6
CONTINUOUS
 62
     7
 10
30224.90488598239
 20
8955.829209595018
 30
0.0
 11
30224.90488598239
 21
9905.829209595018
 31
0.0
  0
LINE
  5
2FE
  8
VENUE
  6
CONTINUOUS
 62
     7
 10
32924.90488598239
 20
25155.82920959502
 30
0.0
 11
32924.90488598239
 21
22005.82920959502
 31
0.0
  0
LINE
  5
2FF
  8
VENUE
  6
CONTINUOUS
 62
     7
 10
33124.90488598239
 20
18905.82920959502
 30
0.0
 11
33124.90488598239
 21
18705.82920959502
 31
0.0
  0
LINE
  5
300
  8
VENUE
  6
CONTINUOUS
 62
     7
 10
33124.90488598239
 20
18705.82920959502
 30
0.0
 11
32924.90488598239
 21
18705.82920959502
 31
0.0
  0
LINE
  5
301
  8
VENUE
  6
CONTINUOUS
 62
     7
 10
33124.90488598239
 20
18705.82920959502
 30
0.0
 11
33124.90488598239
 21
17905.82920959502
 31
0.0
  0
LINE
  5
302
  8
VENUE
  6
CONTINUOUS
 62
     7
 10
33124.90488598239
 20
16105.82920959502
 30
0.0
 11
32924.90488598239
 21
16105.82920959502
 31
0.0
  0
LINE
  5
303
  8
VENUE
  6
CONTINUOUS
 62
     7
 10
33124.90488598239
 20
16105.82920959502
 30
0.0
 11
33124.90488598239
 21
15905.82920959502
 31
0.0
  0
LINE
  5
304
  8
VENUE
  6
CONTINUOUS
 62
     7
 10
33124.90488598239
 20
16105.82920959502
 30
0.0
 11
33124.90488598239
 21
16905.82920959502
 31
0.0
  0
POLYLINE
  5
305
  8
VENUE
  6
CONTINUOUS
 62
     7
 66
     1
 10
0.0
 20
0.0
 30
0.0
 70
   129
  0
VERTEX
  5
5BB
  8
VENUE
  6
CONTINUOUS
 62
     7
 10
32924.90488598239
 20
17905.82920959502
 30
0.0
  0
VERTEX
  5
5BC
  8
VENUE
  6
CONTINUOUS
 62
     7
 10
33124.90488598239
 20
17905.82920959502
 30
0.0
  0
VERTEX
  5
5BD
  8
VENUE
  6
CONTINUOUS
 62
     7
 10
33124.90488598239
 20
16905.82920959502
 30
0.0
  0
VERTEX
  5
5BE
  8
VENUE
  6
CONTINUOUS
 62
     7
 10
32924.90488598239
 20
16905.82920959502
 30
0.0
  0
SEQEND
  5
786
  8
VENUE
  6
CONTINUOUS
 62
     7
  0
LINE
  5
306
  8
VENUE
  6
CONTINUOUS
 62
     7
 10
33124.90488598239
 20
18705.82920959502
 30
0.0
 11
33924.90488598239
 21
18705.82920959502
 31
0.0
  0
ARC
  5
307
  8
VENUE
  6
CONTINUOUS
 62
     7
 10
33124.90488598239
 20
18705.82920959502
 30
0.0
 40
800.0
 50
270.0
 51
0.0
  0
LINE
  5
308
  8
VENUE
  6
CONTINUOUS
 62
     7
 10
32924.90488598239
 20
14255.82920959502
 30
0.0
 11
35124.90488598239
 21
14255.82920959502
 31
0.0
  0
LINE
  5
309
  8
VENUE
  6
CONTINUOUS
 62
     7
 10
32924.90488598239
 20
16105.82920959502
 30
0.0
 11
32924.90488598239
 21
14255.82920959502
 31
0.0
  0
LINE
  5
30A
  8
VENUE
  6
CONTINUOUS
 62
     7
 10
33124.90488598239
 20
15755.82920959502
 30
0.0
 11
33124.90488598239
 21
14455.82920959502
 31
0.0
  0
LINE
  5
30B
  8
VENUE
  6
CONTINUOUS
 62
     7
 10
38074.90488598239
 20
15755.82920959502
 30
0.0
 11
38924.90488598239
 21
15755.82920959502
 31
0.0
  0
LINE
  5
30C
  8
VENUE
  6
CONTINUOUS
 62
     7
 10
36124.90488598239
 20
14455.82920959502
 30
0.0
 11
36274.90488598239
 21
14455.82920959502
 31
0.0
  0
LINE
  5
30D
  8
VENUE
  6
CONTINUOUS
 62
     7
 10
38924.90488598239
 20
14305.82920959502
 30
0.0
 11
38924.90488598239
 21
11255.82920959502
 31
0.0
  0
LINE
  5
30E
  8
VENUE
  6
CONTINUOUS
 62
     7
 10
39124.90488598239
 20
17005.82920959502
 30
0.0
 11
39124.90488598239
 21
11255.82920959502
 31
0.0
  0
LINE
  5
30F
  8
VENUE
  6
CONTINUOUS
 62
     7
 10
35224.90488598239
 20
10155.82920959502
 30
0.0
 11
39224.90488598239
 21
10155.82920959502
 31
0.0
  0
LINE
  5
310
  8
VENUE
  6
CONTINUOUS
 62
     7
 10
39124.90488598239
 20
17005.82920959502
 30
0.0
 11
39224.90488598239
 21
17005.82920959502
 31
0.0
  0
LINE
  5
311
  8
VENUE
  6
CONTINUOUS
 62
     7
 10
38924.90488598239
 20
15905.82920959502
 30
0.0
 11
38924.90488598239
 21
17005.82920959502
 31
0.0
  0
LINE
  5
312
  8
VENUE
  6
CONTINUOUS
 62
     7
 10
38924.90488598239
 20
14455.82920959502
 30
0.0
 11
38924.90488598239
 21
15755.82920959502
 31
0.0
  0
LINE
  5
313
  8
VENUE
  6
CONTINUOUS
 62
     7
 10
35974.90488598239
 20
15755.82920959502
 30
0.0
 11
35974.90488598239
 21
14455.82920959502
 31
0.0
  0
LINE
  5
314
  8
VENUE
  6
CONTINUOUS
 62
     7
 10
36124.90488598239
 20
14455.82920959502
 30
0.0
 11
36124.90488598239
 21
15755.82920959502
 31
0.0
  0
LINE
  5
315
  8
VENUE
  6
CONTINUOUS
 62
     7
 10
35974.90488598239
 20
15755.82920959502
 30
0.0
 11
34174.90488598239
 21
15755.82920959502
 31
0.0
  0
LINE
  5
316
  8
VENUE
  6
CONTINUOUS
 62
     7
 10
35124.90488598239
 20
14255.82920959502
 30
0.0
 11
35124.90488598239
 21
14455.82920959502
 31
0.0
  0
LINE
  5
317
  8
VENUE
  6
CONTINUOUS
 62
     7
 10
35824.90488598239
 20
14255.82920959502
 30
0.0
 11
35824.90488598239
 21
14455.82920959502
 31
0.0
  0
LINE
  5
318
  8
VENUE
  6
CONTINUOUS
 62
     7
 10
35124.90488598239
 20
14455.82920959502
 30
0.0
 11
34174.90488598239
 21
14455.82920959502
 31
0.0
  0
LINE
  5
319
  8
VENUE
  6
CONTINUOUS
 62
     7
 10
35824.90488598239
 20
14255.82920959502
 30
0.0
 11
35824.90488598239
 21
13555.82920959502
 31
0.0
  0
ARC
  5
31A
  8
VENUE
  6
CONTINUOUS
 62
     7
 10
35824.90488598239
 20
14255.82920959502
 30
0.0
 40
700.0
 50
180.0
 51
270.0
  0
LINE
  5
31B
  8
VENUE
  6
CONTINUOUS
 62
     7
 10
35974.90488598239
 20
14455.82920959502
 30
0.0
 11
35824.90488598239
 21
14455.82920959502
 31
0.0
  0
LINE
  5
31C
  8
VENUE
  6
CONTINUOUS
 62
     7
 10
36274.90488598239
 20
14455.82920959502
 30
0.0
 11
36274.90488598239
 21
14305.82920959502
 31
0.0
  0
LINE
  5
31D
  8
VENUE
  6
CONTINUOUS
 62
     7
 10
36274.90488598239
 20
14305.82920959502
 30
0.0
 11
35824.90488598239
 21
14305.82920959502
 31
0.0
  0
LINE
  5
31E
  8
VENUE
  6
CONTINUOUS
 62
     7
 10
36974.90488598239
 20
14305.82920959502
 30
0.0
 11
36974.90488598239
 21
13605.82920959502
 31
0.0
  0
ARC
  5
31F
  8
VENUE
  6
CONTINUOUS
 62
     7
 10
36974.90488598239
 20
14305.82920959502
 30
0.0
 40
700.0
 50
180.0
 51
270.0
  0
LINE
  5
320
  8
VENUE
  6
CONTINUOUS
 62
     7
 10
36974.90488598239
 20
14305.82920959502
 30
0.0
 11
38924.90488598239
 21
14305.82920959502
 31
0.0
  0
LINE
  5
321
  8
VENUE
  6
CONTINUOUS
 62
     7
 10
38924.90488598239
 20
14455.82920959502
 30
0.0
 11
38074.90488598239
 21
14455.82920959502
 31
0.0
  0
LINE
  5
322
  8
VENUE
  6
CONTINUOUS
 62
     7
 10
36974.90488598239
 20
14455.82920959502
 30
0.0
 11
36974.90488598239
 21
14305.82920959502
 31
0.0
  0
LINE
  5
323
  8
VENUE
  6
CONTINUOUS
 62
     7
 10
34024.90488598239
 20
14455.82920959502
 30
0.0
 11
34024.90488598239
 21
15055.82920959502
 31
0.0
  0
LINE
  5
324
  8
VENUE
  6
CONTINUOUS
 62
     7
 10
34174.90488598239
 20
14455.82920959502
 30
0.0
 11
34174.90488598239
 21
15055.82920959502
 31
0.0
  0
LINE
  5
325
  8
VENUE
  6
CONTINUOUS
 62
     7
 10
34174.90488598239
 20
15055.82920959502
 30
0.0
 11
34024.90488598239
 21
15055.82920959502
 31
0.0
  0
LINE
  5
326
  8
VENUE
  6
CONTINUOUS
 62
     7
 10
34174.90488598239
 20
15755.82920959502
 30
0.0
 11
34174.90488598239
 21
15655.82920959502
 31
0.0
  0
LINE
  5
327
  8
VENUE
  6
CONTINUOUS
 62
     7
 10
34174.90488598239
 20
15655.82920959502
 30
0.0
 11
34024.90488598239
 21
15655.82920959502
 31
0.0
  0
LINE
  5
328
  8
VENUE
  6
CONTINUOUS
 62
     7
 10
34024.90488598239
 20
15655.82920959502
 30
0.0
 11
34024.90488598239
 21
15755.82920959502
 31
0.0
  0
LINE
  5
329
  8
VENUE
  6
CONTINUOUS
 62
     7
 10
34174.90488598239
 20
15655.82920959502
 30
0.0
 11
34774.90488598239
 21
15655.82920959502
 31
0.0
  0
ARC
  5
32A
  8
VENUE
  6
CONTINUOUS
 62
     7
 10
34174.90488598239
 20
15655.82920959502
 30
0.0
 40
600.0
 50
270.0
 51
0.0
  0
LINE
  5
32B
  8
VENUE
  6
CONTINUOUS
 62
     7
 10
34024.90488598239
 20
15755.82920959502
 30
0.0
 11
33124.90488598239
 21
15755.82920959502
 31
0.0
  0
LINE
  5
32C
  8
VENUE
  6
CONTINUOUS
 62
     7
 10
38074.90488598239
 20
14455.82920959502
 30
0.0
 11
38074.90488598239
 21
15055.82920959502
 31
0.0
  0
LINE
  5
32D
  8
VENUE
  6
CONTINUOUS
 62
     7
 10
37924.90488598239
 20
14455.82920959502
 30
0.0
 11
37924.90488598239
 21
15055.82920959502
 31
0.0
  0
LINE
  5
32E
  8
VENUE
  6
CONTINUOUS
 62
     7
 10
37924.90488598239
 20
15055.82920959502
 30
0.0
 11
38074.90488598239
 21
15055.82920959502
 31
0.0
  0
LINE
  5
32F
  8
VENUE
  6
CONTINUOUS
 62
     7
 10
37924.90488598239
 20
15755.82920959502
 30
0.0
 11
37924.90488598239
 21
15655.82920959502
 31
0.0
  0
LINE
  5
330
  8
VENUE
  6
CONTINUOUS
 62
     7
 10
37924.90488598239
 20
15655.82920959502
 30
0.0
 11
38074.90488598239
 21
15655.82920959502
 31
0.0
  0
LINE
  5
331
  8
VENUE
  6
CONTINUOUS
 62
     7
 10
38074.90488598239
 20
15655.82920959502
 30
0.0
 11
38074.90488598239
 21
15755.82920959502
 31
0.0
  0
ARC
  5
332
  8
VENUE
  6
CONTINUOUS
 62
     7
 10
37924.90488598239
 20
15655.82920959502
 30
0.0
 40
600.0
 50
180.0
 51
270.0
  0
LINE
  5
333
  8
VENUE
  6
CONTINUOUS
 62
     7
 10
37324.90488598239
 20
15655.82920959502
 30
0.0
 11
37924.90488598239
 21
15655.82920959502
 31
0.0
  0
LINE
  5
334
  8
VENUE
  6
CONTINUOUS
 62
     7
 10
34024.90488598239
 20
14455.82920959502
 30
0.0
 11
33124.90488598239
 21
14455.82920959502
 31
0.0
  0
LINE
  5
335
  8
VENUE
  6
CONTINUOUS
 62
     7
 10
37924.90488598239
 20
14455.82920959502
 30
0.0
 11
36974.90488598239
 21
14455.82920959502
 31
0.0
  0
LINE
  5
336
  8
VENUE
  6
CONTINUOUS
 62
     7
 10
37924.90488598239
 20
15755.82920959502
 30
0.0
 11
36124.90488598239
 21
15755.82920959502
 31
0.0
  0
LINE
  5
337
  8
VENUE
  6
CONTINUOUS
 62
     7
 10
39224.90488598239
 20
5805.829209595018
 30
0.0
 11
39224.90488598239
 21
10155.82920959502
 31
0.0
  0
LINE
  5
338
  8
VENUE
  6
CONTINUOUS
 62
     7
 10
38474.90488598239
 20
11105.82920959502
 30
0.0
 11
38474.90488598239
 21
10355.82920959502
 31
0.0
  0
LINE
  5
339
  8
VENUE
  6
CONTINUOUS
 62
     7
 10
38474.90488598239
 20
10355.82920959502
 30
0.0
 11
37424.90488598239
 21
10355.82920959502
 31
0.0
  0
LINE
  5
33A
  8
VENUE
  6
CONTINUOUS
 62
     7
 10
37224.90488598239
 20
10355.82920959502
 30
0.0
 11
35674.90488598239
 21
10355.82920959502
 31
0.0
  0
LINE
  5
33B
  8
VENUE
  6
CONTINUOUS
 62
     7
 10
37424.90488598239
 20
11255.82920959502
 30
0.0
 11
38924.90488598239
 21
11255.82920959502
 31
0.0
  0
LINE
  5
33C
  8
VENUE
  6
CONTINUOUS
 62
     7
 10
39124.90488598239
 20
11255.82920959502
 30
0.0
 11
39224.90488598239
 21
11255.82920959502
 31
0.0
  0
LINE
  5
33D
  8
VENUE
  6
CONTINUOUS
 62
     7
 10
37424.90488598239
 20
11105.82920959502
 30
0.0
 11
38474.90488598239
 21
11105.82920959502
 31
0.0
  0
LINE
  5
33E
  8
VENUE
  6
CONTINUOUS
 62
     7
 10
37424.90488598239
 20
11255.82920959502
 30
0.0
 11
37424.90488598239
 21
13505.82920959502
 31
0.0
  0
LINE
  5
33F
  8
VENUE
  6
CONTINUOUS
 62
     7
 10
37224.90488598239
 20
13505.82920959502
 30
0.0
 11
37424.90488598239
 21
13505.82920959502
 31
0.0
  0
LINE
  5
340
  8
VENUE
  6
CONTINUOUS
 62
     7
 10
32524.90488598239
 20
10655.82920959502
 30
0.0
 11
35474.90488598239
 21
10655.82920959502
 31
0.0
  0
LINE
  5
341
  8
VENUE
  6
CONTINUOUS
 62
     7
 10
35024.90488598239
 20
9305.829209595018
 30
0.0
 11
32724.90488598239
 21
9305.829209595018
 31
0.0
  0
LINE
  5
342
  8
VENUE
  6
CONTINUOUS
 62
     7
 10
35024.90488598239
 20
10455.82920959502
 30
0.0
 11
32724.90488598239
 21
10455.82920959502
 31
0.0
  0
LINE
  5
343
  8
VENUE
  6
CONTINUOUS
 62
     7
 10
35024.90488598239
 20
10455.82920959502
 30
0.0
 11
35024.90488598239
 21
9305.829209595018
 31
0.0
  0
LINE
  5
344
  8
VENUE
  6
CONTINUOUS
 62
     7
 10
32724.90488598239
 20
10455.82920959502
 30
0.0
 11
32724.90488598239
 21
9305.829209595018
 31
0.0
  0
LINE
  5
345
  8
VENUE
  6
CONTINUOUS
 62
     7
 10
32524.90488598239
 20
10655.82920959502
 30
0.0
 11
32524.90488598239
 21
8955.829209595018
 31
0.0
  0
LINE
  5
346
  8
VENUE
  6
CONTINUOUS
 62
     7
 10
32724.90488598239
 20
9105.829209595018
 30
0.0
 11
32724.90488598239
 21
8755.829209595018
 31
0.0
  0
LINE
  5
347
  8
VENUE
  6
CONTINUOUS
 62
     7
 10
32324.90488598239
 20
8955.829209595018
 30
0.0
 11
32324.90488598239
 21
9755.829209595018
 31
0.0
  0
LINE
  5
348
  8
VENUE
  6
CONTINUOUS
 62
     7
 10
30724.90488598239
 20
8955.829209595018
 30
0.0
 11
30724.90488598239
 21
9755.829209595018
 31
0.0
  0
ARC
  5
349
  8
VENUE
  6
CONTINUOUS
 62
     7
 10
30724.90488598239
 20
8955.829209595018
 30
0.0
 40
800.0
 50
0.0
 51
90.0
  0
ARC
  5
34A
  8
VENUE
  6
CONTINUOUS
 62
     7
 10
32324.90488598239
 20
8955.829209595018
 30
0.0
 40
800.0
 50
90.0
 51
180.0
  0
LINE
  5
34B
  8
VENUE
  6
CONTINUOUS
 62
     7
 10
30724.90488598239
 20
8955.829209595018
 30
0.0
 11
30724.90488598239
 21
8755.829209595018
 31
0.0
  0
LINE
  5
34C
  8
VENUE
  6
CONTINUOUS
 62
     7
 10
32324.90488598239
 20
8955.829209595018
 30
0.0
 11
32324.90488598239
 21
8805.829209595018
 31
0.0
  0
LINE
  5
34D
  8
VENUE
  6
CONTINUOUS
 62
     7
 10
32524.90488598239
 20
8755.829209595018
 30
0.0
 11
32720.90488598239
 21
8755.829209595018
 31
0.0
  0
LINE
  5
34E
  8
VENUE
  6
CONTINUOUS
 62
     7
 10
30724.90488598239
 20
8805.829209595018
 30
0.0
 11
32524.90488598239
 21
8805.829209595018
 31
0.0
  0
LINE
  5
34F
  8
VENUE
  6
CONTINUOUS
 62
     7
 10
32524.90488598239
 20
8805.829209595018
 30
0.0
 11
32524.90488598239
 21
8755.829209595018
 31
0.0
  0
LINE
  5
350
  8
VENUE
  6
ラインタイプ-3
 62
     7
 10
35024.90488598239
 20
9305.829209595018
 30
0.0
 11
32724.90488598239
 21
10455.82920959502
 31
0.0
  0
LINE
  5
351
  8
VENUE
  6
ラインタイプ-3
 62
     7
 10
32724.90488598239
 20
9305.829209595018
 30
0.0
 11
35024.90488598239
 21
10455.82920959502
 31
0.0
  0
LINE
  5
352
  8
VENUE
  6
CONTINUOUS
 62
     7
 10
35674.90488598239
 20
12955.82920959502
 30
0.0
 11
35674.90488598239
 21
10355.82920959502
 31
0.0
  0
LINE
  5
353
  8
VENUE
  6
CONTINUOUS
 62
     7
 10
35474.90488598239
 20
12955.82920959502
 30
0.0
 11
35474.90488598239
 21
10655.82920959502
 31
0.0
  0
LINE
  5
354
  8
VENUE
  6
CONTINUOUS
 62
     7
 10
33124.90488598239
 20
12955.82920959502
 30
0.0
 11
35474.90488598239
 21
12955.82920959502
 31
0.0
  0
LINE
  5
355
  8
VENUE
  6
CONTINUOUS
 62
     7
 10
32924.90488598239
 20
13155.82920959502
 30
0.0
 11
32924.90488598239
 21
12455.82920959502
 31
0.0
  0
LINE
  5
356
  8
VENUE
  6
CONTINUOUS
 62
     7
 10
33124.90488598239
 20
11255.82920959502
 30
0.0
 11
33124.90488598239
 21
10655.82920959502
 31
0.0
  0
LINE
  5
357
  8
VENUE
  6
CONTINUOUS
 62
     7
 10
36424.90488598239
 20
13155.82920959502
 30
0.0
 11
37224.90488598239
 21
13155.82920959502
 31
0.0
  0
LINE
  5
358
  8
VENUE
  6
CONTINUOUS
 62
     7
 10
36424.90488598239
 20
12955.82920959502
 30
0.0
 11
37224.90488598239
 21
12955.82920959502
 31
0.0
  0
LINE
  5
359
  8
VENUE
  6
CONTINUOUS
 62
     7
 10
36424.90488598239
 20
12955.82920959502
 30
0.0
 11
36424.90488598239
 21
13155.82920959502
 31
0.0
  0
LINE
  5
35A
  8
VENUE
  6
CONTINUOUS
 62
     7
 10
35724.90488598239
 20
12955.82920959502
 30
0.0
 11
35724.90488598239
 21
12255.82920959502
 31
0.0
  0
ARC
  5
35B
  8
VENUE
  6
CONTINUOUS
 62
     7
 10
35724.90488598239
 20
12955.82920959502
 30
0.0
 40
700.0
 50
270.0
 51
0.0
  0
LINE
  5
35C
  8
VENUE
  6
CONTINUOUS
 62
     7
 10
35724.90488598239
 20
12955.82920959502
 30
0.0
 11
35724.90488598239
 21
13155.82920959502
 31
0.0
  0
LINE
  5
35D
  8
VENUE
  6
CONTINUOUS
 62
     7
 10
35724.90488598239
 20
12955.82920959502
 30
0.0
 11
35674.90488598239
 21
12955.82920959502
 31
0.0
  0
LINE
  5
35E
  8
VENUE
  6
CONTINUOUS
 62
     7
 10
37224.90488598239
 20
13155.82920959502
 30
0.0
 11
37224.90488598239
 21
13505.82920959502
 31
0.0
  0
LINE
  5
35F
  8
VENUE
  6
CONTINUOUS
 62
     7
 10
32924.90488598239
 20
11155.82920959502
 30
0.0
 11
32924.90488598239
 21
10655.82920959502
 31
0.0
  0
LINE
  5
360
  8
VENUE
  6
CONTINUOUS
 62
     7
 10
33124.90488598239
 20
12955.82920959502
 30
0.0
 11
33124.90488598239
 21
12355.82920959502
 31
0.0
  0
LINE
  5
361
  8
VENUE
  6
CONTINUOUS
 62
     7
 10
32924.90488598239
 20
12455.82920959502
 30
0.0
 11
33124.90488598239
 21
12355.82920959502
 31
0.0
  0
LINE
  5
362
  8
VENUE
  6
CONTINUOUS
 62
     7
 10
32924.90488598239
 20
11155.82920959502
 30
0.0
 11
33124.90488598239
 21
11255.82920959502
 31
0.0
  0
LINE
  5
363
  8
VENUE
  6
CONTINUOUS
 62
     7
 10
33124.90488598239
 20
11255.82920959502
 30
0.0
 11
33124.90488598239
 21
12355.82920959502
 31
0.0
  0
LINE
  5
364
  8
VENUE
  6
CONTINUOUS
 62
     7
 10
37224.90488598239
 20
14205.82920959502
 30
0.0
 11
37224.90488598239
 21
14305.82920959502
 31
0.0
  0
LINE
  5
365
  8
VENUE
  6
CONTINUOUS
 62
     7
 10
37224.90488598239
 20
14205.82920959502
 30
0.0
 11
37424.90488598239
 21
14205.82920959502
 31
0.0
  0
LINE
  5
366
  8
VENUE
  6
CONTINUOUS
 62
     7
 10
37424.90488598239
 20
14205.82920959502
 30
0.0
 11
37424.90488598239
 21
14305.82920959502
 31
0.0
  0
LINE
  5
367
  8
VENUE
  6
CONTINUOUS
 62
     7
 10
37424.90488598239
 20
14205.82920959502
 30
0.0
 11
38124.90488598239
 21
14205.82920959502
 31
0.0
  0
ARC
  5
368
  8
VENUE
  6
CONTINUOUS
 62
     7
 10
37424.90488598239
 20
14205.82920959502
 30
0.0
 40
700.0
 50
270.0
 51
0.0
  0
LINE
  5
369
  8
VENUE
  6
CONTINUOUS
 62
     7
 10
39524.90488598239
 20
17305.82920959502
 30
0.0
 11
41474.90488598239
 21
17305.82920959502
 31
0.0
  0
LINE
  5
36A
  8
VENUE
  6
CONTINUOUS
 62
     7
 10
39524.90488598239
 20
17655.82920959502
 30
0.0
 11
41174.90488598239
 21
17655.82920959502
 31
0.0
  0
LINE
  5
36B
  8
VENUE
  6
CONTINUOUS
 62
     7
 10
39524.90488598239
 20
18105.82920959502
 30
0.0
 11
39224.90488598239
 21
18105.82920959502
 31
0.0
  0
LINE
  5
36C
  8
VENUE
  6
CONTINUOUS
 62
     7
 10
39524.90488598239
 20
18905.82920959502
 30
0.0
 11
39224.90488598239
 21
18905.82920959502
 31
0.0
  0
LINE
  5
36D
  8
VENUE
  6
CONTINUOUS
 62
     7
 10
39524.90488598239
 20
18105.82920959502
 30
0.0
 11
40324.90488598239
 21
18105.82920959502
 31
0.0
  0
ARC
  5
36E
  8
VENUE
  6
CONTINUOUS
 62
     7
 10
39524.90488598239
 20
18105.82920959502
 30
0.0
 40
800.0
 50
0.0
 51
90.0
  0
LINE
  5
36F
  8
VENUE
  6
CONTINUOUS
 62
     7
 10
39524.90488598239
 20
17655.82920959502
 30
0.0
 11
39524.90488598239
 21
18105.82920959502
 31
0.0
  0
LINE
  5
370
  8
VENUE
  6
CONTINUOUS
 62
     7
 10
39524.90488598239
 20
22005.82920959502
 30
0.0
 11
39524.90488598239
 21
19605.82920959502
 31
0.0
  0
LINE
  5
371
  8
VENUE
  6
CONTINUOUS
 62
     7
 10
39224.90488598239
 20
18905.82920959502
 30
0.0
 11
39224.90488598239
 21
19305.82920959502
 31
0.0
  0
LINE
  5
372
  8
VENUE
  6
CONTINUOUS
 62
     7
 10
39524.90488598239
 20
19305.82920959502
 30
0.0
 11
41174.90488598239
 21
19305.82920959502
 31
0.0
  0
LINE
  5
373
  8
VENUE
  6
CONTINUOUS
 62
     7
 10
39524.90488598239
 20
19305.82920959502
 30
0.0
 11
39524.90488598239
 21
18905.82920959502
 31
0.0
  0
LINE
  5
374
  8
VENUE
  6
CONTINUOUS
 62
     7
 10
38924.90488598239
 20
19305.82920959502
 30
0.0
 11
39224.90488598239
 21
19305.82920959502
 31
0.0
  0
LINE
  5
375
  8
VENUE
  6
CONTINUOUS
 62
     7
 10
39224.90488598239
 20
18105.82920959502
 30
0.0
 11
39224.90488598239
 21
18055.82920959502
 31
0.0
  0
LINE
  5
376
  8
VENUE
  6
CONTINUOUS
 62
     7
 10
39524.90488598239
 20
19605.82920959502
 30
0.0
 11
41474.90488598239
 21
19605.82920959502
 31
0.0
  0
LINE
  5
377
  8
VENUE
  6
CONTINUOUS
 62
     7
 10
39224.90488598239
 20
19605.82920959502
 30
0.0
 11
39124.90488598239
 21
19605.82920959502
 31
0.0
  0
LINE
  5
378
  8
VENUE
  6
CONTINUOUS
 62
     7
 10
39224.90488598239
 20
21705.82920959502
 30
0.0
 11
39124.90488598239
 21
21705.82920959502
 31
0.0
  0
LINE
  5
379
  8
VENUE
  6
CONTINUOUS
 62
     7
 10
39124.90488598239
 20
19605.82920959502
 30
0.0
 11
39124.90488598239
 21
21705.82920959502
 31
0.0
  0
LINE
  5
37A
  8
VENUE
  6
CONTINUOUS
 62
     7
 10
38924.90488598239
 20
19305.82920959502
 30
0.0
 11
38924.90488598239
 21
21705.82920959502
 31
0.0
  0
LINE
  5
37B
  8
VENUE
  6
CONTINUOUS
 62
     7
 10
36674.90488598239
 20
26931.82920959502
 30
0.0
 11
34374.90488598239
 21
26931.82920959502
 31
0.0
  0
LINE
  5
37C
  8
VENUE
  6
CONTINUOUS
 62
     7
 10
36674.90488598239
 20
26731.82920959502
 30
0.0
 11
34174.90488598239
 21
26731.82920959502
 31
0.0
  0
LINE
  5
37D
  8
VENUE
  6
CONTINUOUS
 62
     7
 10
34374.90488598239
 20
26931.82920959502
 30
0.0
 11
34374.90488598239
 21
27331.82920959502
 31
0.0
  0
LINE
  5
37E
  8
VENUE
  6
CONTINUOUS
 62
     7
 10
34174.90488598239
 20
26731.82920959502
 30
0.0
 11
34174.90488598239
 21
27331.82920959502
 31
0.0
  0
LINE
  5
37F
  8
VENUE
  6
CONTINUOUS
 62
     7
 10
36674.90488598239
 20
26931.82920959502
 30
0.0
 11
36674.90488598239
 21
26731.82920959502
 31
0.0
  0
LINE
  5
380
  8
VENUE
  6
CONTINUOUS
 62
     7
 10
34374.90488598239
 20
27331.82920959502
 30
0.0
 11
34174.90488598239
 21
27331.82920959502
 31
0.0
  0
LINE
  5
381
  8
VENUE
  6
CONTINUOUS
 62
     7
 10
34174.90488598239
 20
27331.82920959502
 30
0.0
 11
34174.90488598239
 21
28131.82920959502
 31
0.0
  0
LINE
  5
382
  8
VENUE
  6
CONTINUOUS
 62
     7
 10
34174.90488598239
 20
28131.82920959502
 30
0.0
 11
34374.90488598239
 21
28131.82920959502
 31
0.0
  0
LINE
  5
383
  8
VENUE
  6
CONTINUOUS
 62
     7
 10
34174.90488598239
 20
28131.82920959502
 30
0.0
 11
34174.90488598239
 21
28268.82920959502
 31
0.0
  0
LINE
  5
384
  8
VENUE
  6
CONTINUOUS
 62
     7
 10
34374.90488598239
 20
28131.82920959502
 30
0.0
 11
34374.90488598239
 21
28268.82920959502
 31
0.0
  0
LINE
  5
385
  8
VENUE
  6
CONTINUOUS
 62
     7
 10
34174.90488598239
 20
28268.82920959502
 30
0.0
 11
32724.90488598239
 21
28268.82920959502
 31
0.0
  0
LINE
  5
386
  8
VENUE
  6
CONTINUOUS
 62
     7
 10
34174.90488598239
 20
28131.82920959502
 30
0.0
 11
33374.90488598239
 21
28131.82920959502
 31
0.0
  0
ARC
  5
387
  8
VENUE
  6
CONTINUOUS
 62
     7
 10
34174.90488598239
 20
28131.82920959502
 30
0.0
 40
800.0
 50
180.0
 51
270.0
  0
LINE
  5
388
  8
VENUE
  6
CONTINUOUS
 62
     7
 10
36624.90488598239
 20
26731.82920959502
 30
0.0
 11
36624.90488598239
 21
25455.82920959502
 31
0.0
  0
LINE
  5
389
  8
VENUE
  6
CONTINUOUS
 62
     7
 10
36358.90488598239
 20
26731.82920959502
 30
0.0
 11
36358.90488598239
 21
25455.82920959502
 31
0.0
  0
LINE
  5
38A
  8
VENUE
  6
CONTINUOUS
 62
     7
 10
36092.90488598239
 20
26731.82920959502
 30
0.0
 11
36092.90488598239
 21
25455.82920959502
 31
0.0
  0
LINE
  5
38B
  8
VENUE
  6
CONTINUOUS
 62
     7
 10
35826.90488598239
 20
26731.82920959502
 30
0.0
 11
35826.90488598239
 21
25455.82920959502
 31
0.0
  0
LINE
  5
38C
  8
VENUE
  6
CONTINUOUS
 62
     7
 10
35560.90488598239
 20
26731.82920959502
 30
0.0
 11
35560.90488598239
 21
25455.82920959502
 31
0.0
  0
LINE
  5
38D
  8
VENUE
  6
CONTINUOUS
 62
     7
 10
35294.90488598239
 20
26731.82920959502
 30
0.0
 11
35294.90488598239
 21
25455.82920959502
 31
0.0
  0
LINE
  5
38E
  8
VENUE
  6
CONTINUOUS
 62
     7
 10
35028.90488598239
 20
26731.82920959502
 30
0.0
 11
35028.90488598239
 21
25455.82920959502
 31
0.0
  0
LINE
  5
38F
  8
VENUE
  6
CONTINUOUS
 62
     7
 10
34762.90488598239
 20
26731.82920959502
 30
0.0
 11
34762.90488598239
 21
25455.82920959502
 31
0.0
  0
LINE
  5
390
  8
VENUE
  6
CONTINUOUS
 62
     7
 10
34496.90488598239
 20
26731.82920959502
 30
0.0
 11
34496.90488598239
 21
25455.82920959502
 31
0.0
  0
LINE
  5
391
  8
VENUE
  6
CONTINUOUS
 62
     7
 10
34230.90488598239
 20
26731.82920959502
 30
0.0
 11
34230.90488598239
 21
25455.82920959502
 31
0.0
  0
LINE
  5
392
  8
VENUE
  6
CONTINUOUS
 62
     7
 10
36624.90488598239
 20
26931.82920959502
 30
0.0
 11
36624.90488598239
 21
28268.82920959502
 31
0.0
  0
LINE
  5
393
  8
VENUE
  6
CONTINUOUS
 62
     7
 10
36358.90488598239
 20
26931.82920959502
 30
0.0
 11
36358.90488598239
 21
28268.82920959502
 31
0.0
  0
LINE
  5
394
  8
VENUE
  6
CONTINUOUS
 62
     7
 10
36099.90488598239
 20
26931.82920959502
 30
0.0
 11
36099.90488598239
 21
28268.82920959502
 31
0.0
  0
LINE
  5
395
  8
VENUE
  6
CONTINUOUS
 62
     7
 10
35675.90488598239
 20
26931.82920959502
 30
0.0
 11
36099.90488598239
 21
28268.82920959502
 31
0.0
  0
LINE
  5
396
  8
VENUE
  6
CONTINUOUS
 62
     7
 10
35826.90488598239
 20
26931.82920959502
 30
0.0
 11
35826.90488598239
 21
27407.97820959502
 31
0.0
  0
LINE
  5
397
  8
VENUE
  6
CONTINUOUS
 62
     7
 10
37299.90488598239
 20
26093.82920959502
 30
0.0
 11
33449.90488598239
 21
26093.82920959502
 31
0.0
  0
SOLID
  5
398
  8
VENUE
 62
     7
 10
35887.90488598239
 20
27600.32920959502
 30
0.0
 11
36205.40488598239
 21
27685.40320959502
 31
0.0
 12
36205.40488598239
 22
27515.25520959502
 32
0.0
 13
36205.40488598239
 23
27515.25520959502
 33
0.0
  0
LINE
  5
399
  8
VENUE
  6
CONTINUOUS
 62
     7
 10
35887.90488598239
 20
27600.32920959502
 30
0.0
 11
37299.90488598239
 21
27600.32920959502
 31
0.0
  0
LINE
  5
39A
  8
VENUE
  6
CONTINUOUS
 62
     7
 10
37299.90488598239
 20
27600.32920959502
 30
0.0
 11
37299.90488598239
 21
26093.82920959502
 31
0.0
  0
LINE
  5
39B
  8
VENUE
  6
CONTINUOUS
 62
     7
 10
34174.90488598239
 20
26731.82920959502
 30
0.0
 11
32724.90488598239
 21
25455.82920959502
 31
0.0
  0
CIRCLE
  5
39C
  8
VENUE
 62
     7
 10
33449.90488598239
 20
26787.82920959502
 30
0.0
 40
88.21099999999933
  0
LINE
  5
39D
  8
VENUE
  6
CONTINUOUS
 62
     7
 10
33449.90488598239
 20
26093.82920959502
 30
0.0
 11
33449.90488598239
 21
26787.82920959502
 31
0.0
  0
LINE
  5
39E
  8
VENUE
  6
CONTINUOUS
 62
     7
 10
34174.90488598239
 20
26787.82920959502
 30
0.0
 11
32724.90488598239
 21
26787.82920959502
 31
0.0
  0
LINE
  5
39F
  8
VENUE
  6
CONTINUOUS
 62
     7
 10
30524.90488598239
 20
13155.82920959502
 30
0.0
 11
30524.90488598239
 21
15555.82920959502
 31
0.0
  0
ARC
  5
3A0
  8
VENUE
  6
CONTINUOUS
 62
     7
 10
30524.90488598239
 20
13155.82920959502
 30
0.0
 40
2400.0
 50
0.0
 51
90.0
  0
POLYLINE
  5
3A1
  8
VENUE
  6
CONTINUOUS
 62
     7
 66
     1
 10
0.0
 20
0.0
 30
0.0
 70
   129
  0
VERTEX
  5
5BF
  8
VENUE
  6
CONTINUOUS
 62
     7
 10
32924.90488598239
 20
8855.829209595018
 30
0.0
  0
VERTEX
  5
5C0
  8
VENUE
  6
CONTINUOUS
 62
     7
 10
38924.90488598239
 20
8855.829209595018
 30
0.0
  0
VERTEX
  5
5C1
  8
VENUE
  6
CONTINUOUS
 62
     7
 10
38924.90488598239
 20
6355.829209595018
 30
0.0
  0
VERTEX
  5
5C2
  8
VENUE
  6
CONTINUOUS
 62
     7
 10
32924.90488598239
 20
6355.829209595018
 30
0.0
  0
SEQEND
  5
787
  8
VENUE
  6
CONTINUOUS
 62
     7
  0
LINE
  5
3A2
  8
VENUE
  6
CONTINUOUS
 62
     7
 10
32524.90488598239
 20
1005.829209595018
 30
0.0
 11
32524.90488598239
 21
6305.829209595018
 31
0.0
  0
LINE
  5
3A3
  8
VENUE
  6
CONTINUOUS
 62
     7
 10
31140.90488598239
 20
805.8292095950183
 30
0.0
 11
35524.90488598239
 21
805.8292095950183
 31
0.0
  0
LINE
  5
3A4
  8
VENUE
  6
CONTINUOUS
 62
     7
 10
31140.90488598239
 20
1005.829209595018
 30
0.0
 11
32524.90488598239
 21
1005.829209595018
 31
0.0
  0
LINE
  5
3A5
  8
VENUE
  6
CONTINUOUS
 62
     7
 10
34024.90488598239
 20
-719.1707904049817
 30
0.0
 11
34024.90488598239
 21
-2094.170790404982
 31
0.0
  0
LINE
  5
3A6
  8
VENUE
  6
CONTINUOUS
 62
     7
 10
33764.90488598239
 20
-719.1707904049817
 30
0.0
 11
33764.90488598239
 21
-2094.170790404982
 31
0.0
  0
LINE
  5
3A7
  8
VENUE
  6
CONTINUOUS
 62
     7
 10
33504.90488598239
 20
805.8292095950183
 30
0.0
 11
33504.90488598239
 21
-569.1707904049817
 31
0.0
  0
LINE
  5
3A8
  8
VENUE
  6
CONTINUOUS
 62
     7
 10
33244.90488598239
 20
805.8292095950183
 30
0.0
 11
33244.90488598239
 21
-569.1707904049817
 31
0.0
  0
LINE
  5
3A9
  8
VENUE
  6
CONTINUOUS
 62
     7
 10
32984.90488598239
 20
805.8292095950183
 30
0.0
 11
32984.90488598239
 21
-569.1707904049817
 31
0.0
  0
LINE
  5
3AA
  8
VENUE
  6
CONTINUOUS
 62
     7
 10
32724.90488598239
 20
805.8292095950183
 30
0.0
 11
32724.90488598239
 21
-569.1707904049817
 31
0.0
  0
LINE
  5
3AB
  8
VENUE
  6
CONTINUOUS
 62
     7
 10
32464.90488598239
 20
805.8292095950183
 30
0.0
 11
32464.90488598239
 21
-569.1707904049817
 31
0.0
  0
LINE
  5
3AC
  8
VENUE
  6
CONTINUOUS
 62
     7
 10
32204.90488598239
 20
805.8292095950183
 30
0.0
 11
32204.90488598239
 21
-569.1707904049817
 31
0.0
  0
LINE
  5
3AD
  8
VENUE
  6
CONTINUOUS
 62
     7
 10
31944.90488598239
 20
805.8292095950183
 30
0.0
 11
31944.90488598239
 21
-569.1707904049817
 31
0.0
  0
LINE
  5
3AE
  8
VENUE
  6
CONTINUOUS
 62
     7
 10
31684.90488598239
 20
805.8292095950183
 30
0.0
 11
31684.90488598239
 21
-569.1707904049817
 31
0.0
  0
LINE
  5
3AF
  8
VENUE
  6
CONTINUOUS
 62
     7
 10
31424.90488598239
 20
805.8292095950183
 30
0.0
 11
31424.90488598239
 21
-719.1707904049817
 31
0.0
  0
LINE
  5
3B0
  8
VENUE
  6
CONTINUOUS
 62
     7
 10
31140.90488598239
 20
805.8292095950183
 30
0.0
 11
31140.90488598239
 21
1005.829209595018
 31
0.0
  0
LINE
  5
3B1
  8
VENUE
  6
CONTINUOUS
 62
     7
 10
31140.90488598239
 20
805.8292095950183
 30
0.0
 11
29940.90488598239
 21
805.8292095950183
 31
0.0
  0
LINE
  5
3B2
  8
VENUE
  6
CONTINUOUS
 62
     7
 10
35524.90488598239
 20
-644.1707904049817
 30
0.0
 11
34024.90488598239
 21
-644.1707904049817
 31
0.0
  0
LINE
  5
3B3
  8
VENUE
  6
CONTINUOUS
 62
     7
 10
35524.90488598239
 20
-1344.170790404982
 30
0.0
 11
34774.90488598239
 21
-2094.170790404982
 31
0.0
  0
LINE
  5
3B4
  8
VENUE
  6
CONTINUOUS
 62
     7
 10
34024.90488598239
 20
-644.1707904049817
 30
0.0
 11
35524.90488598239
 21
805.8292095950183
 31
0.0
  0
CIRCLE
  5
3B5
  8
VENUE
 62
     7
 10
31424.90488598239
 20
80.82920959501826
 30
0.0
 40
88.21099999999933
  0
LINE
  5
3B6
  8
VENUE
  6
CONTINUOUS
 62
     7
 10
31424.90488598239
 20
80.82920959501826
 30
0.0
 11
34774.90488598239
 21
80.82920959501826
 31
0.0
  0
LINE
  5
3B7
  8
VENUE
  6
CONTINUOUS
 62
     7
 10
34774.90488598239
 20
-1369.170790404982
 30
0.0
 11
34774.90488598239
 21
80.82920959501826
 31
0.0
  0
LINE
  5
3B8
  8
VENUE
  6
CONTINUOUS
 62
     7
 10
33244.90488598239
 20
-1369.170790404982
 30
0.0
 11
34774.90488598239
 21
-1369.170790404982
 31
0.0
  0
LINE
  5
3B9
  8
VENUE
  6
CONTINUOUS
 62
     7
 10
19006.90488598239
 20
-8744.170790404984
 30
0.0
 11
13840.90488598239
 21
-8744.170790404984
 31
0.0
  0
LINE
  5
3BA
  8
VENUE
  6
CONTINUOUS
 62
     7
 10
19006.90488598239
 20
-8644.170790404984
 30
0.0
 11
13840.90488598239
 21
-8644.170790404984
 31
0.0
  0
LINE
  5
3BB
  8
VENUE
  6
CONTINUOUS
 62
     7
 10
19006.90488598239
 20
-8494.170790404984
 30
0.0
 11
13840.90488598239
 21
-8494.170790404984
 31
0.0
  0
LINE
  5
3BC
  8
VENUE
  6
CONTINUOUS
 62
     7
 10
19506.90488598239
 20
-2794.170790404982
 30
0.0
 11
15606.90488598239
 21
-2794.170790404982
 31
0.0
  0
LINE
  5
3BD
  8
VENUE
  6
CONTINUOUS
 62
     7
 10
30106.90488598239
 20
-2794.170790404982
 30
0.0
 11
19906.90488598239
 21
-2794.170790404982
 31
0.0
  0
LINE
  5
3BE
  8
VENUE
  6
CONTINUOUS
 62
     7
 10
15356.90488598239
 20
-2794.170790404982
 30
0.0
 11
14706.90488598239
 21
-2794.170790404982
 31
0.0
  0
LINE
  5
3BF
  8
VENUE
  6
CONTINUOUS
 62
     7
 10
14706.90488598239
 20
-1644.170790404982
 30
0.0
 11
16006.90488598239
 21
-1644.170790404982
 31
0.0
  0
LINE
  5
3C0
  8
VENUE
  6
CONTINUOUS
 62
     7
 10
13840.90488598239
 20
-8294.170790404984
 30
0.0
 11
13840.90488598239
 21
-8494.170790404984
 31
0.0
  0
LINE
  5
3C1
  8
VENUE
  6
CONTINUOUS
 62
     7
 10
13840.90488598239
 20
-8744.170790404984
 30
0.0
 11
13840.90488598239
 21
-8644.170790404984
 31
0.0
  0
LINE
  5
3C2
  8
VENUE
  6
CONTINUOUS
 62
     7
 10
13840.90488598239
 20
-8294.170790404984
 30
0.0
 11
13156.90488598239
 21
-8294.170790404984
 31
0.0
  0
LINE
  5
3C3
  8
VENUE
  6
CONTINUOUS
 62
     7
 10
13156.90488598239
 20
-6994.170790404984
 30
0.0
 11
13156.90488598239
 21
-8294.170790404984
 31
0.0
  0
LINE
  5
3C4
  8
VENUE
  6
CONTINUOUS
 62
     7
 10
13156.90488598239
 20
-6744.170790404984
 30
0.0
 11
13156.90488598239
 21
-4844.170790404984
 31
0.0
  0
LINE
  5
3C5
  8
VENUE
  6
CONTINUOUS
 62
     7
 10
13840.90488598239
 20
-9194.170790404984
 30
0.0
 11
13840.90488598239
 21
-15444.17079040498
 31
0.0
  0
LINE
  5
3C6
  8
VENUE
  6
CONTINUOUS
 62
     7
 10
13840.90488598239
 20
-15444.17079040498
 30
0.0
 11
2240.904885982389
 21
-15444.17079040498
 31
0.0
  0
LINE
  5
3C7
  8
VENUE
  6
CONTINUOUS
 62
     7
 10
12906.90488598239
 20
-4844.170790404984
 30
0.0
 11
12906.90488598239
 21
-14744.17079040498
 31
0.0
  0
LINE
  5
3C8
  8
VENUE
  6
CONTINUOUS
 62
     7
 10
13156.90488598239
 20
-9194.170790404984
 30
0.0
 11
13156.90488598239
 21
-14544.17079040498
 31
0.0
  0
LINE
  5
3C9
  8
VENUE
  6
CONTINUOUS
 62
     7
 10
13456.90488598239
 20
-9194.170790404984
 30
0.0
 11
13456.90488598239
 21
-14544.17079040498
 31
0.0
  0
LINE
  5
3CA
  8
VENUE
  6
CONTINUOUS
 62
     7
 10
13456.90488598239
 20
-9194.170790404984
 30
0.0
 11
13156.90488598239
 21
-9194.170790404984
 31
0.0
  0
LINE
  5
3CB
  8
VENUE
  6
CONTINUOUS
 62
     7
 10
13456.90488598239
 20
-14544.17079040498
 30
0.0
 11
13156.90488598239
 21
-14544.17079040498
 31
0.0
  0
LINE
  5
3CC
  8
VENUE
  6
CONTINUOUS
 62
     7
 10
2940.904885982389
 20
-14544.17079040498
 30
0.0
 11
2590.904885982389
 21
-14544.17079040498
 31
0.0
  0
LINE
  5
3CD
  8
VENUE
  6
CONTINUOUS
 62
     7
 10
12906.90488598239
 20
-14744.17079040498
 30
0.0
 11
3140.904885982389
 21
-14744.17079040498
 31
0.0
  0
LINE
  5
3CE
  8
VENUE
  6
CONTINUOUS
 62
     7
 10
7790.904885982389
 20
-15044.17079040498
 30
0.0
 11
3140.904885982389
 21
-15044.17079040498
 31
0.0
  0
LINE
  5
3CF
  8
VENUE
  6
CONTINUOUS
 62
     7
 10
7790.904885982389
 20
-14944.17079040498
 30
0.0
 11
3140.904885982389
 21
-14944.17079040498
 31
0.0
  0
LINE
  5
3D0
  8
VENUE
  6
CONTINUOUS
 62
     7
 10
3140.904885982389
 20
-15044.17079040498
 30
0.0
 11
3140.904885982389
 21
-14944.17079040498
 31
0.0
  0
LINE
  5
3D1
  8
VENUE
  6
CONTINUOUS
 62
     7
 10
8256.904885982389
 20
-14944.17079040498
 30
0.0
 11
8256.904885982389
 21
-15044.17079040498
 31
0.0
  0
LINE
  5
3D2
  8
VENUE
  6
CONTINUOUS
 62
     7
 10
7790.904885982389
 20
-15044.17079040498
 30
0.0
 11
7790.904885982389
 21
-14944.17079040498
 31
0.0
  0
LINE
  5
3D3
  8
VENUE
  6
CONTINUOUS
 62
     7
 10
8256.904885982389
 20
-15044.17079040498
 30
0.0
 11
12906.90488598239
 21
-15044.17079040498
 31
0.0
  0
LINE
  5
3D4
  8
VENUE
  6
CONTINUOUS
 62
     7
 10
12906.90488598239
 20
-14944.17079040498
 30
0.0
 11
8256.904885982389
 21
-14944.17079040498
 31
0.0
  0
LINE
  5
3D5
  8
VENUE
  6
CONTINUOUS
 62
     7
 10
2940.904885982389
 20
-9194.170790404984
 30
0.0
 11
2590.904885982389
 21
-9194.170790404984
 31
0.0
  0
LINE
  5
3D6
  8
VENUE
  6
CONTINUOUS
 62
     7
 10
2940.904885982389
 20
-8294.170790404984
 30
0.0
 11
2590.904885982389
 21
-8294.170790404984
 31
0.0
  0
LINE
  5
3D7
  8
VENUE
  6
CONTINUOUS
 62
     7
 10
2940.904885982389
 20
-8294.170790404984
 30
0.0
 11
2940.904885982389
 21
-5444.170790404984
 31
0.0
  0
LINE
  5
3D8
  8
VENUE
  6
CONTINUOUS
 62
     7
 10
2590.904885982389
 20
-8294.170790404984
 30
0.0
 11
2590.904885982389
 21
-5444.170790404984
 31
0.0
  0
LINE
  5
3D9
  8
VENUE
  6
CONTINUOUS
 62
     7
 10
14956.90488598239
 20
-4844.170790404984
 30
0.0
 11
14956.90488598239
 21
-6744.170790404984
 31
0.0
  0
LINE
  5
3DA
  8
VENUE
  6
CONTINUOUS
 62
     7
 10
13656.90488598239
 20
-4844.170790404984
 30
0.0
 11
13456.90488598239
 21
-4644.170790404984
 31
0.0
  0
LINE
  5
3DB
  8
VENUE
  6
CONTINUOUS
 62
     7
 10
15606.90488598239
 20
-3894.170790404982
 30
0.0
 11
15606.90488598239
 21
-4844.170790404984
 31
0.0
  0
LINE
  5
3DC
  8
VENUE
  6
CONTINUOUS
 62
     7
 10
15606.90488598239
 20
-4844.170790404984
 30
0.0
 11
15206.90488598239
 21
-4844.170790404984
 31
0.0
  0
LINE
  5
3DD
  8
VENUE
  6
CONTINUOUS
 62
     7
 10
15356.90488598239
 20
-4644.170790404984
 30
0.0
 11
14656.90488598239
 21
-4644.170790404984
 31
0.0
  0
LINE
  5
3DE
  8
VENUE
  6
CONTINUOUS
 62
     7
 10
14956.90488598239
 20
-4844.170790404984
 30
0.0
 11
14456.90488598239
 21
-4844.170790404984
 31
0.0
  0
LINE
  5
3DF
  8
VENUE
  6
CONTINUOUS
 62
     7
 10
15356.90488598239
 20
-2994.170790404982
 30
0.0
 11
15606.90488598239
 21
-2994.170790404982
 31
0.0
  0
LINE
  5
3E0
  8
VENUE
  6
CONTINUOUS
 62
     7
 10
15606.90488598239
 20
-2994.170790404982
 30
0.0
 11
15606.90488598239
 21
-2794.170790404982
 31
0.0
  0
LINE
  5
3E1
  8
VENUE
  6
CONTINUOUS
 62
     7
 10
15606.90488598239
 20
-3894.170790404982
 30
0.0
 11
15356.90488598239
 21
-3894.170790404982
 31
0.0
  0
POLYLINE
  5
3E2
  8
VENUE
  6
CONTINUOUS
 62
     7
 66
     1
 10
0.0
 20
0.0
 30
0.0
 70
   128
  0
VERTEX
  5
5C3
  8
VENUE
  6
CONTINUOUS
 62
     7
 10
15606.90488598239
 20
-2991.170790404982
 30
0.0
  0
VERTEX
  5
5C4
  8
VENUE
  6
CONTINUOUS
 62
     7
 10
15606.90488598239
 20
-3894.170790404982
 30
0.0
  0
VERTEX
  5
5C5
  8
VENUE
  6
CONTINUOUS
 62
     7
 10
15660.70888598239
 20
-3892.280790404982
 30
0.0
  0
VERTEX
  5
5C6
  8
VENUE
  6
CONTINUOUS
 62
     7
 10
15713.60588598239
 20
-3886.60979040498
 30
0.0
  0
VERTEX
  5
5C7
  8
VENUE
  6
CONTINUOUS
 62
     7
 10
15765.59388598239
 20
-3877.158790404983
 30
0.0
  0
VERTEX
  5
5C8
  8
VENUE
  6
CONTINUOUS
 62
     7
 10
15816.67388598239
 20
-3863.926790404983
 30
0.0
  0
VERTEX
  5
5C9
  8
VENUE
  6
CONTINUOUS
 62
     7
 10
15866.84388598239
 20
-3846.914790404981
 30
0.0
  0
VERTEX
  5
5CA
  8
VENUE
  6
CONTINUOUS
 62
     7
 10
15916.10588598239
 20
-3826.120790404982
 30
0.0
  0
VERTEX
  5
5CB
  8
VENUE
  6
CONTINUOUS
 62
     7
 10
15964.45888598239
 20
-3801.546790404982
 30
0.0
  0
VERTEX
  5
5CC
  8
VENUE
  6
CONTINUOUS
 62
     7
 10
16011.90488598239
 20
-3773.191790404982
 30
0.0
  0
VERTEX
  5
5CD
  8
VENUE
  6
CONTINUOUS
 62
     7
 10
16057.65288598239
 20
-3741.563790404982
 30
0.0
  0
VERTEX
  5
5CE
  8
VENUE
  6
CONTINUOUS
 62
     7
 10
16100.91988598239
 20
-3707.166790404981
 30
0.0
  0
VERTEX
  5
5CF
  8
VENUE
  6
CONTINUOUS
 62
     7
 10
16141.70388598239
 20
-3670.00379040498
 30
0.0
  0
VERTEX
  5
5D0
  8
VENUE
  6
CONTINUOUS
 62
     7
 10
16180.00588598239
 20
-3630.071790404983
 30
0.0
  0
VERTEX
  5
5D1
  8
VENUE
  6
CONTINUOUS
 62
     7
 10
16215.82388598239
 20
-3587.373790404983
 30
0.0
  0
VERTEX
  5
5D2
  8
VENUE
  6
CONTINUOUS
 62
     7
 10
16249.16088598239
 20
-3541.906790404983
 30
0.0
  0
VERTEX
  5
5D3
  8
VENUE
  6
CONTINUOUS
 62
     7
 10
16280.01388598239
 20
-3493.672790404982
 30
0.0
  0
VERTEX
  5
5D4
  8
VENUE
  6
CONTINUOUS
 62
     7
 10
16308.38588598239
 20
-3442.670790404982
 30
0.0
  0
VERTEX
  5
5D5
  8
VENUE
  6
CONTINUOUS
 62
     7
 10
16333.81888598239
 20
-3389.779790404982
 30
0.0
  0
VERTEX
  5
5D6
  8
VENUE
  6
CONTINUOUS
 62
     7
 10
16355.86188598239
 20
-3335.874790404981
 30
0.0
  0
VERTEX
  5
5D7
  8
VENUE
  6
CONTINUOUS
 62
     7
 10
16374.51388598239
 20
-3280.956790404982
 30
0.0
  0
VERTEX
  5
5D8
  8
VENUE
  6
CONTINUOUS
 62
     7
 10
16389.77488598239
 20
-3225.024790404981
 30
0.0
  0
VERTEX
  5
5D9
  8
VENUE
  6
CONTINUOUS
 62
     7
 10
16401.64388598239
 20
-3168.081790404982
 30
0.0
  0
VERTEX
  5
5DA
  8
VENUE
  6
CONTINUOUS
 62
     7
 10
16410.12188598239
 20
-3110.124790404981
 30
0.0
  0
VERTEX
  5
5DB
  8
VENUE
  6
CONTINUOUS
 62
     7
 10
16415.20888598239
 20
-3051.154790404982
 30
0.0
  0
VERTEX
  5
5DC
  8
VENUE
  6
CONTINUOUS
 62
     7
 10
16416.90488598239
 20
-2991.170790404982
 30
0.0
  0
SEQEND
  5
788
  8
VENUE
  6
CONTINUOUS
 62
     7
  0
LINE
  5
3E3
  8
VENUE
  6
CONTINUOUS
 62
     7
 10
15206.90488598239
 20
-6994.170790404984
 30
0.0
 11
13156.90488598239
 21
-6994.170790404984
 31
0.0
  0
LINE
  5
3E4
  8
VENUE
  6
CONTINUOUS
 62
     7
 10
14956.90488598239
 20
-6744.170790404984
 30
0.0
 11
13156.90488598239
 21
-6744.170790404984
 31
0.0
  0
LINE
  5
3E5
  8
VENUE
  6
CONTINUOUS
 62
     7
 10
15206.90488598239
 20
-6994.170790404984
 30
0.0
 11
15206.90488598239
 21
-4844.170790404984
 31
0.0
  0
LINE
  5
3E6
  8
VENUE
  6
CONTINUOUS
 62
     7
 10
14456.90488598239
 20
-4844.170790404984
 30
0.0
 11
14656.90488598239
 21
-4644.170790404984
 31
0.0
  0
LINE
  5
3E7
  8
VENUE
  6
CONTINUOUS
 62
     7
 10
12906.90488598239
 20
-15044.17079040498
 30
0.0
 11
12906.90488598239
 21
-14944.17079040498
 31
0.0
  0
LINE
  5
3E8
  8
VENUE
  6
CONTINUOUS
 62
     7
 10
2590.904885982389
 20
-5444.170790404984
 30
0.0
 11
2940.904885982389
 21
-5444.170790404984
 31
0.0
  0
LINE
  5
3E9
  8
VENUE
  6
CONTINUOUS
 62
     7
 10
2240.904885982389
 20
-4661.170790404984
 30
0.0
 11
2240.904885982389
 21
-4761.170790404984
 31
0.0
  0
LINE
  5
3EA
  8
VENUE
  6
CONTINUOUS
 62
     7
 10
3148.904885982389
 20
-4461.170790404984
 30
0.0
 11
3148.904885982389
 21
-4644.170790404984
 31
0.0
  0
LINE
  5
3EB
  8
VENUE
  6
CONTINUOUS
 62
     7
 10
-3359.095114017611
 20
-4761.170790404984
 30
0.0
 11
-3359.095114017611
 21
-4661.170790404984
 31
0.0
  0
LINE
  5
3EC
  8
VENUE
  6
CONTINUOUS
 62
     7
 10
-3609.095114017611
 20
2838.829209595018
 30
0.0
 11
-3959.095114017611
 21
2838.829209595018
 31
0.0
  0
LINE
  5
3ED
  8
VENUE
  6
CONTINUOUS
 62
     7
 10
-3959.095114017611
 20
2838.829209595018
 30
0.0
 11
-3959.095114017611
 21
7638.829209595018
 31
0.0
  0
LINE
  5
3EE
  8
VENUE
  6
CONTINUOUS
 62
     7
 10
-3859.095114017611
 20
10088.82920959502
 30
0.0
 11
-3959.095114017611
 21
10088.82920959502
 31
0.0
  0
LINE
  5
3EF
  8
VENUE
  6
CONTINUOUS
 62
     7
 10
-4069.095114017611
 20
10088.82920959502
 30
0.0
 11
-4143.095114017611
 21
10088.82920959502
 31
0.0
  0
LINE
  5
3F0
  8
VENUE
  6
CONTINUOUS
 62
     7
 10
19006.90488598239
 20
-8294.170790404984
 30
0.0
 11
19006.90488598239
 21
-8494.170790404984
 31
0.0
  0
LINE
  5
3F1
  8
VENUE
  6
CONTINUOUS
 62
     7
 10
19006.90488598239
 20
-8744.170790404984
 30
0.0
 11
19006.90488598239
 21
-8644.170790404984
 31
0.0
  0
LINE
  5
3F2
  8
VENUE
  6
CONTINUOUS
 62
     7
 10
19506.90488598239
 20
-8294.170790404984
 30
0.0
 11
19006.90488598239
 21
-8294.170790404984
 31
0.0
  0
LINE
  5
3F3
  8
VENUE
  6
CONTINUOUS
 62
     7
 10
14056.90488598239
 20
-5118.170790404984
 30
0.0
 11
14056.90488598239
 21
-4508.170790404984
 31
0.0
  0
LINE
  5
3F4
  8
VENUE
  6
CONTINUOUS
 62
     7
 10
14706.90488598239
 20
-1644.170790404982
 30
0.0
 11
15406.90488598239
 21
-1644.170790404982
 31
0.0
  0
LINE
  5
3F5
  8
VENUE
  6
CONTINUOUS
 62
     7
 10
28956.90488598239
 20
-2444.170790404982
 30
0.0
 11
28956.90488598239
 21
-1594.170790404982
 31
0.0
  0
LINE
  5
3F6
  8
VENUE
  6
CONTINUOUS
 62
     7
 10
14940.90488598239
 20
15955.82920959502
 30
0.0
 11
14940.90488598239
 21
20118.82920959502
 31
0.0
  0
LINE
  5
3F7
  8
VENUE
  6
CONTINUOUS
 62
     7
 10
30306.90488598239
 20
-2094.170790404982
 30
0.0
 11
30106.90488598239
 21
-2094.170790404982
 31
0.0
  0
LINE
  5
3F8
  8
VENUE
  6
CONTINUOUS
 62
     7
 10
30106.90488598239
 20
-2794.170790404982
 30
0.0
 11
30106.90488598239
 21
-2494.170790404982
 31
0.0
  0
LINE
  5
3F9
  8
VENUE
  6
CONTINUOUS
 62
     7
 10
30306.90488598239
 20
-2094.170790404982
 30
0.0
 11
31406.90488598239
 21
-2094.170790404982
 31
0.0
  0
LINE
  5
3FA
  8
VENUE
  6
CONTINUOUS
 62
     7
 10
29940.90488598239
 20
805.8292095950183
 30
0.0
 11
29940.90488598239
 21
-394.1707904049817
 31
0.0
  0
ARC
  5
3FB
  8
VENUE
  6
CONTINUOUS
 62
     7
 10
29940.90488598239
 20
805.8292095950183
 30
0.0
 40
1200.0
 50
270.0
 51
0.0
  0
LINE
  5
3FC
  8
VENUE
  6
CONTINUOUS
 62
     7
 10
30540.90488598239
 20
701.8292095950183
 30
0.0
 11
30540.90488598239
 21
994.3292095950183
 31
0.0
  0
LINE
  5
3FD
  8
VENUE
  6
CONTINUOUS
 62
     7
 10
32056.90488598239
 20
-2094.170790404982
 30
0.0
 11
32056.90488598239
 21
-1694.170790404982
 31
0.0
  0
LINE
  5
3FE
  8
VENUE
  6
CONTINUOUS
 62
     7
 10
32056.90488598239
 20
-894.1707904049817
 30
0.0
 11
31256.90488598239
 21
-894.1707904049817
 31
0.0
  0
ARC
  5
3FF
  8
VENUE
  6
CONTINUOUS
 62
     7
 10
32056.90488598239
 20
-894.1707904049817
 30
0.0
 40
800.0
 50
180.0
 51
270.0
  0
LINE
  5
400
  8
VENUE
  6
CONTINUOUS
 62
     7
 10
34024.90488598239
 20
-569.1707904049817
 30
0.0
 11
31424.90488598239
 21
-569.1707904049817
 31
0.0
  0
LINE
  5
401
  8
VENUE
  6
CONTINUOUS
 62
     7
 10
34024.90488598239
 20
-719.1707904049817
 30
0.0
 11
31424.90488598239
 21
-719.1707904049817
 31
0.0
  0
POLYLINE
  5
402
  8
VENUE
  6
CONTINUOUS
 62
     7
 66
     1
 10
0.0
 20
0.0
 30
0.0
 70
   129
  0
VERTEX
  5
5DD
  8
VENUE
  6
CONTINUOUS
 62
     7
 10
32056.90488598239
 20
-719.1707904049817
 30
0.0
  0
VERTEX
  5
5DE
  8
VENUE
  6
CONTINUOUS
 62
     7
 10
32190.73988598239
 20
-719.1707904049817
 30
0.0
  0
VERTEX
  5
5DF
  8
VENUE
  6
CONTINUOUS
 62
     7
 10
32190.73988598239
 20
-894.1707904049817
 30
0.0
  0
VERTEX
  5
5E0
  8
VENUE
  6
CONTINUOUS
 62
     7
 10
32056.90488598239
 20
-894.1707904049817
 30
0.0
  0
SEQEND
  5
789
  8
VENUE
  6
CONTINUOUS
 62
     7
  0
LINE
  5
403
  8
VENUE
  6
CONTINUOUS
 62
     7
 10
33374.90488598239
 20
-719.1707904049817
 30
0.0
 11
32984.90488598239
 21
-2094.170790404982
 31
0.0
  0
LINE
  5
404
  8
VENUE
  6
CONTINUOUS
 62
     7
 10
33244.90488598239
 20
-1177.503790404982
 30
0.0
 11
33244.90488598239
 21
-2094.170790404982
 31
0.0
  0
LINE
  5
405
  8
VENUE
  6
CONTINUOUS
 62
     7
 10
33504.90488598239
 20
-719.1707904049817
 30
0.0
 11
33504.90488598239
 21
-2094.170790404982
 31
0.0
  0
LINE
  5
406
  8
VENUE
  6
CONTINUOUS
 62
     7
 10
33764.90488598239
 20
805.8292095950183
 30
0.0
 11
33764.90488598239
 21
-569.1707904049817
 31
0.0
  0
LINE
  5
407
  8
VENUE
  6
CONTINUOUS
 62
     7
 10
34024.90488598239
 20
805.8292095950183
 30
0.0
 11
34024.90488598239
 21
-569.1707904049817
 31
0.0
  0
POLYLINE
  5
408
  8
VENUE
  6
CONTINUOUS
 62
     7
 66
     1
 10
0.0
 20
0.0
 30
0.0
 70
   129
  0
VERTEX
  5
5E1
  8
VENUE
  6
CONTINUOUS
 62
     7
 10
31424.90488598239
 20
-569.1707904049817
 30
0.0
  0
VERTEX
  5
5E2
  8
VENUE
  6
CONTINUOUS
 62
     7
 10
34024.90488598239
 20
-569.1707904049817
 30
0.0
  0
VERTEX
  5
5E3
  8
VENUE
  6
CONTINUOUS
 62
     7
 10
34024.90488598239
 20
-719.1707904049817
 30
0.0
  0
VERTEX
  5
5E4
  8
VENUE
  6
CONTINUOUS
 62
     7
 10
31424.90488598239
 20
-719.1707904049817
 30
0.0
  0
SEQEND
  5
78A
  8
VENUE
  6
CONTINUOUS
 62
     7
  0
LINE
  5
409
  8
VENUE
  6
CONTINUOUS
 62
     7
 10
30524.90488598239
 20
8755.829209595018
 30
0.0
 11
31824.90488598239
 21
8755.829209595018
 31
0.0
  0
POLYLINE
  5
40A
  8
VENUE
  6
CONTINUOUS
 62
     7
 66
     1
 10
0.0
 20
0.0
 30
0.0
 70
   128
  0
VERTEX
  5
5E5
  8
VENUE
  6
CONTINUOUS
 62
     7
 10
30524.90488598239
 20
8755.829209595018
 30
0.0
  0
VERTEX
  5
5E6
  8
VENUE
  6
CONTINUOUS
 62
     7
 10
30524.90488598239
 20
7555.829209595018
 30
0.0
  0
VERTEX
  5
5E7
  8
VENUE
  6
CONTINUOUS
 62
     7
 10
30611.25788598239
 20
7558.341209595018
 30
0.0
  0
VERTEX
  5
5E8
  8
VENUE
  6
CONTINUOUS
 62
     7
 10
30696.15388598239
 20
7565.877209595018
 30
0.0
  0
VERTEX
  5
5E9
  8
VENUE
  6
CONTINUOUS
 62
     7
 10
30779.59088598239
 20
7578.437209595019
 30
0.0
  0
VERTEX
  5
5EA
  8
VENUE
  6
CONTINUOUS
 62
     7
 10
30861.57088598239
 20
7596.021209595017
 30
0.0
  0
VERTEX
  5
5EB
  8
VENUE
  6
CONTINUOUS
 62
     7
 10
30942.09088598239
 20
7618.629209595018
 30
0.0
  0
VERTEX
  5
5EC
  8
VENUE
  6
CONTINUOUS
 62
     7
 10
31021.15388598239
 20
7646.261209595018
 30
0.0
  0
VERTEX
  5
5ED
  8
VENUE
  6
CONTINUOUS
 62
     7
 10
31098.75688598239
 20
7678.917209595018
 30
0.0
  0
VERTEX
  5
5EE
  8
VENUE
  6
CONTINUOUS
 62
     7
 10
31174.90388598239
 20
7716.599209595021
 30
0.0
  0
VERTEX
  5
5EF
  8
VENUE
  6
CONTINUOUS
 62
     7
 10
31248.32788598239
 20
7758.630209595019
 30
0.0
  0
VERTEX
  5
5F0
  8
VENUE
  6
CONTINUOUS
 62
     7
 10
31317.76788598239
 20
7804.339209595018
 30
0.0
  0
VERTEX
  5
5F1
  8
VENUE
  6
CONTINUOUS
 62
     7
 10
31383.22288598239
 20
7853.726209595018
 30
0.0
  0
VERTEX
  5
5F2
  8
VENUE
  6
CONTINUOUS
 62
     7
 10
31444.69488598239
 20
7906.791209595021
 30
0.0
  0
VERTEX
  5
5F3
  8
VENUE
  6
CONTINUOUS
 62
     7
 10
31502.18088598239
 20
7963.533209595019
 30
0.0
  0
VERTEX
  5
5F4
  8
VENUE
  6
CONTINUOUS
 62
     7
 10
31555.68488598239
 20
8023.954209595017
 30
0.0
  0
VERTEX
  5
5F5
  8
VENUE
  6
CONTINUOUS
 62
     7
 10
31605.20288598239
 20
8088.052209595018
 30
0.0
  0
VERTEX
  5
5F6
  8
VENUE
  6
CONTINUOUS
 62
     7
 10
31650.73788598239
 20
8155.829209595018
 30
0.0
  0
VERTEX
  5
5F7
  8
VENUE
  6
CONTINUOUS
 62
     7
 10
31691.55688598239
 20
8226.11620959502
 30
0.0
  0
VERTEX
  5
5F8
  8
VENUE
  6
CONTINUOUS
 62
     7
 10
31726.93488598239
 20
8297.751209595019
 30
0.0
  0
VERTEX
  5
5F9
  8
VENUE
  6
CONTINUOUS
 62
     7
 10
31756.86988598239
 20
8370.732209595019
 30
0.0
  0
VERTEX
  5
5FA
  8
VENUE
  6
CONTINUOUS
 62
     7
 10
31781.36288598239
 20
8445.059209595018
 30
0.0
  0
VERTEX
  5
5FB
  8
VENUE
  6
CONTINUOUS
 62
     7
 10
31800.41188598239
 20
8520.732209595019
 30
0.0
  0
VERTEX
  5
5FC
  8
VENUE
  6
CONTINUOUS
 62
     7
 10
31814.01888598239
 20
8597.751209595019
 30
0.0
  0
VERTEX
  5
5FD
  8
VENUE
  6
CONTINUOUS
 62
     7
 10
31822.18288598239
 20
8676.11620959502
 30
0.0
  0
VERTEX
  5
5FE
  8
VENUE
  6
CONTINUOUS
 62
     7
 10
31824.90488598239
 20
8755.829209595018
 30
0.0
  0
SEQEND
  5
78B
  8
VENUE
  6
CONTINUOUS
 62
     7
  0
ARC
  5
40B
  8
VENUE
  6
CONTINUOUS
 62
     7
 10
30562.40488598239
 20
6243.329209595019
 30
0.0
 40
1313.036
 50
268.363642
 51
91.63635799999997
  0
LINE
  5
40C
  8
VENUE
  6
CONTINUOUS
 62
     7
 10
27674.90488598239
 20
36068.82920959502
 30
0.0
 11
14640.90488598239
 21
27994.93954152582
 31
0.0
  0
LINE
  5
40D
  8
VENUE
  6
CONTINUOUS
 62
     7
 10
30524.90488598239
 20
30118.82920959502
 30
0.0
 11
32524.90488598239
 21
30118.82920959502
 31
0.0
  0
LINE
  5
40E
  8
VENUE
  6
CONTINUOUS
 62
     7
 10
30524.90488598239
 20
30518.82920959502
 30
0.0
 11
32924.90488598239
 21
30518.82920959502
 31
0.0
  0
LINE
  5
40F
  8
VENUE
  6
CONTINUOUS
 62
     7
 10
30524.90488598239
 20
30118.82920959502
 30
0.0
 11
30524.90488598239
 21
30018.82920959502
 31
0.0
  0
LINE
  5
410
  8
VENUE
  6
CONTINUOUS
 62
     7
 10
30274.90488598239
 20
30118.82920959502
 30
0.0
 11
29924.90488598239
 21
30118.82920959502
 31
0.0
  0
LINE
  5
411
  8
VENUE
  6
CONTINUOUS
 62
     7
 10
30174.90488598239
 20
30268.82920959502
 30
0.0
 11
30174.90488598239
 21
35168.82920959502
 31
0.0
  0
LINE
  5
412
  8
VENUE
  6
CONTINUOUS
 62
     7
 10
30174.90488598239
 20
30268.82920959502
 30
0.0
 11
30074.90488598239
 21
30268.82920959502
 31
0.0
  0
TEXT
  5
413
  8
VENUE
  6
CONTINUOUS
 62
     7
 10
33901.79888598239
 20
11431.81020959502
 30
0.0
 40
285.8575701156615
  1
ELV
  7
OSAKA
  0
TEXT
  5
414
  8
VENUE
  6
CONTINUOUS
 62
     7
 10
37602.53388598239
 20
12345.01314862061
 30
0.0
 40
285.8575701156615
  1
WC(M)
  7
OSAKA
  0
TEXT
  5
415
  8
VENUE
  6
CONTINUOUS
 62
     7
 10
35786.07888598239
 20
11195.01314862061
 30
0.0
 40
285.8575701156615
  1
WC(W)
  7
OSAKA
  0
TEXT
  5
416
  8
VENUE
  6
CONTINUOUS
 62
     7
 10
35019.89288598239
 20
7391.91720959502
 30
0.0
 40
285.8575701156615
  1
カーリフト
  7
OSAKA
  0
INSERT
  5
417
  8
VENUE
 62
     7
  2
*X31
 10
0.0
 20
0.0
 30
0.0
  0
TEXT
  5
418
  8
VENUE
  6
CONTINUOUS
 62
     7
 10
-2440.793114017612
 20
1359.424209595019
 30
0.0
 40
285.8575701156615
  1
洗面室
  7
OSAKA
  0
TEXT
  5
419
  8
VENUE
  6
CONTINUOUS
 62
     7
 10
762.7338859823903
 20
6217.669209595018
 30
0.0
 40
285.8575701156615
  1
洗面室
  7
OSAKA
  0
TEXT
  5
41A
  8
VENUE
  6
CONTINUOUS
 62
     7
 10
-2640.404114017612
 20
4852.163148620609
 30
0.0
 40
285.8575701156615
  1
WC(M)
  7
OSAKA
  0
TEXT
  5
41B
  8
VENUE
  6
CONTINUOUS
 62
     7
 10
-1753.973114017612
 20
9013.525148620605
 30
0.0
 40
285.8575701156615
  1
WC(W)
  7
OSAKA
  0
POLYLINE
  5
41C
  8
VENUE
  6
CONTINUOUS
 62
     7
 66
     1
 10
0.0
 20
0.0
 30
0.0
 70
   129
  0
VERTEX
  5
602
  8
VENUE
  6
CONTINUOUS
 62
     7
 10
14940.90488598239
 20
6388.829209595018
 30
0.0
  0
VERTEX
  5
603
  8
VENUE
  6
CONTINUOUS
 62
     7
 10
15230.90488598239
 20
6388.829209595018
 30
0.0
  0
VERTEX
  5
604
  8
VENUE
  6
CONTINUOUS
 62
     7
 10
15230.90488598239
 20
6338.829209595018
 30
0.0
  0
VERTEX
  5
605
  8
VENUE
  6
CONTINUOUS
 62
     7
 10
16140.90488598239
 20
6338.829209595018
 30
0.0
  0
VERTEX
  5
606
  8
VENUE
  6
CONTINUOUS
 62
     7
 10
16140.90488598239
 20
4955.829209595018
 30
0.0
  0
VERTEX
  5
607
  8
VENUE
  6
CONTINUOUS
 62
     7
 10
15940.90488598239
 20
4955.829209595018
 30
0.0
  0
VERTEX
  5
608
  8
VENUE
  6
CONTINUOUS
 62
     7
 10
15940.90488598239
 20
6138.829209595018
 30
0.0
  0
VERTEX
  5
609
  8
VENUE
  6
CONTINUOUS
 62
     7
 10
15220.90488598239
 20
6138.829209595018
 30
0.0
  0
VERTEX
  5
60A
  8
VENUE
  6
CONTINUOUS
 62
     7
 10
15220.90488598239
 20
4955.829209595018
 30
0.0
  0
VERTEX
  5
60B
  8
VENUE
  6
CONTINUOUS
 62
     7
 10
16240.90488598239
 20
4955.829209595018
 30
0.0
  0
VERTEX
  5
60C
  8
VENUE
  6
CONTINUOUS
 62
     7
 10
16240.90488598239
 20
3655.829209595018
 30
0.0
  0
VERTEX
  5
60D
  8
VENUE
  6
CONTINUOUS
 62
     7
 10
14740.90488598239
 20
3655.829209595018
 30
0.0
  0
VERTEX
  5
60E
  8
VENUE
  6
CONTINUOUS
 62
     7
 10
14740.90488598239
 20
4805.829209595018
 30
0.0
  0
VERTEX
  5
60F
  8
VENUE
  6
CONTINUOUS
 62
     7
 10
14940.90488598239
 20
4805.829209595018
 30
0.0
  0
SEQEND
  5
78C
  8
VENUE
  6
CONTINUOUS
 62
     7
  0
POLYLINE
  5
41D
  8
VENUE
  6
CONTINUOUS
 62
     7
 66
     1
 10
0.0
 20
0.0
 30
0.0
 70
   129
  0
VERTEX
  5
610
  8
VENUE
  6
CONTINUOUS
 62
     7
 10
14940.90488598239
 20
12368.82920959502
 30
0.0
  0
VERTEX
  5
611
  8
VENUE
  6
CONTINUOUS
 62
     7
 10
16140.90488598239
 20
12368.82920959502
 30
0.0
  0
VERTEX
  5
612
  8
VENUE
  6
CONTINUOUS
 62
     7
 10
16140.90488598239
 20
11205.82920959502
 30
0.0
  0
VERTEX
  5
613
  8
VENUE
  6
CONTINUOUS
 62
     7
 10
15940.90488598239
 20
11205.82920959502
 30
0.0
  0
VERTEX
  5
614
  8
VENUE
  6
CONTINUOUS
 62
     7
 10
15940.90488598239
 20
12168.82920959502
 30
0.0
  0
VERTEX
  5
615
  8
VENUE
  6
CONTINUOUS
 62
     7
 10
15220.90488598239
 20
12168.82920959502
 30
0.0
  0
VERTEX
  5
616
  8
VENUE
  6
CONTINUOUS
 62
     7
 10
15220.90488598239
 20
11205.82920959502
 30
0.0
  0
VERTEX
  5
617
  8
VENUE
  6
CONTINUOUS
 62
     7
 10
16240.90488598239
 20
11205.82920959502
 30
0.0
  0
VERTEX
  5
618
  8
VENUE
  6
CONTINUOUS
 62
     7
 10
16240.90488598239
 20
9905.829209595018
 30
0.0
  0
VERTEX
  5
619
  8
VENUE
  6
CONTINUOUS
 62
     7
 10
15220.90488598239
 20
9905.829209595018
 30
0.0
  0
VERTEX
  5
61A
  8
VENUE
  6
CONTINUOUS
 62
     7
 10
15220.90488598239
 20
8388.829209595018
 30
0.0
  0
VERTEX
  5
61B
  8
VENUE
  6
CONTINUOUS
 62
     7
 10
15940.90488598239
 20
8388.829209595018
 30
0.0
  0
VERTEX
  5
61C
  8
VENUE
  6
CONTINUOUS
 62
     7
 10
15940.90488598239
 20
9905.829209595018
 30
0.0
  0
VERTEX
  5
61D
  8
VENUE
  6
CONTINUOUS
 62
     7
 10
16140.90488598239
 20
9905.829209595018
 30
0.0
  0
VERTEX
  5
61E
  8
VENUE
  6
CONTINUOUS
 62
     7
 10
16140.90488598239
 20
8238.829209595018
 30
0.0
  0
VERTEX
  5
61F
  8
VENUE
  6
CONTINUOUS
 62
     7
 10
15230.90488598239
 20
8238.829209595018
 30
0.0
  0
VERTEX
  5
620
  8
VENUE
  6
CONTINUOUS
 62
     7
 10
15230.90488598239
 20
8188.829209595018
 30
0.0
  0
VERTEX
  5
621
  8
VENUE
  6
CONTINUOUS
 62
     7
 10
14940.90488598239
 20
8188.829209595018
 30
0.0
  0
SEQEND
  5
78D
  8
VENUE
  6
CONTINUOUS
 62
     7
  0
LINE
  5
41E
  8
VENUE
  6
CONTINUOUS
 62
     7
 10
14940.90488598239
 20
15955.82920959502
 30
0.0
 11
14940.90488598239
 21
14168.82920959502
 31
0.0
  0
LINE
  5
41F
  8
VENUE
  6
CONTINUOUS
 62
     7
 10
30524.90488598239
 20
18305.82920959502
 30
0.0
 11
30224.90488598239
 21
18305.82920959502
 31
0.0
  0
LINE
  5
420
  8
VENUE
  6
CONTINUOUS
 62
     7
 10
30224.90488598239
 20
18305.82920959502
 30
0.0
 11
30224.90488598239
 21
18255.82920959502
 31
0.0
  0
LINE
  5
421
  8
VENUE
  6
CONTINUOUS
 62
     7
 10
30524.90488598239
 20
20118.82920959502
 30
0.0
 11
31324.90488598239
 21
20118.82920959502
 31
0.0
  0
LINE
  5
422
  8
VENUE
  6
CONTINUOUS
 62
     7
 10
30524.90488598239
 20
18305.82920959502
 30
0.0
 11
31324.90488598239
 21
18305.82920959502
 31
0.0
  0
POLYLINE
  5
423
  8
VENUE
  6
CONTINUOUS
 62
     7
 66
     1
 10
0.0
 20
0.0
 30
0.0
 70
   128
  0
VERTEX
  5
622
  8
VENUE
  6
CONTINUOUS
 62
     7
 10
30524.90488598239
 20
20118.82920959502
 30
0.0
  0
VERTEX
  5
623
  8
VENUE
  6
CONTINUOUS
 62
     7
 10
30524.90488598239
 20
19212.32920959502
 30
0.0
  0
VERTEX
  5
624
  8
VENUE
  6
CONTINUOUS
 62
     7
 10
30578.04488598239
 20
19214.22620959502
 30
0.0
  0
VERTEX
  5
625
  8
VENUE
  6
CONTINUOUS
 62
     7
 10
30630.28888598239
 20
19219.91920959502
 30
0.0
  0
VERTEX
  5
626
  8
VENUE
  6
CONTINUOUS
 62
     7
 10
30681.63488598239
 20
19229.40620959502
 30
0.0
  0
VERTEX
  5
627
  8
VENUE
  6
CONTINUOUS
 62
     7
 10
30732.08388598239
 20
19242.69020959502
 30
0.0
  0
VERTEX
  5
628
  8
VENUE
  6
CONTINUOUS
 62
     7
 10
30781.63488598239
 20
19259.76820959502
 30
0.0
  0
VERTEX
  5
629
  8
VENUE
  6
CONTINUOUS
 62
     7
 10
30830.28888598239
 20
19280.64220959502
 30
0.0
  0
VERTEX
  5
62A
  8
VENUE
  6
CONTINUOUS
 62
     7
 10
30878.04488598239
 20
19305.31120959502
 30
0.0
  0
VERTEX
  5
62B
  8
VENUE
  6
CONTINUOUS
 62
     7
 10
30924.90388598239
 20
19333.77620959502
 30
0.0
  0
VERTEX
  5
62C
  8
VENUE
  6
CONTINUOUS
 62
     7
 10
30970.08788598239
 20
19365.52720959502
 30
0.0
  0
VERTEX
  5
62D
  8
VENUE
  6
CONTINUOUS
 62
     7
 10
31012.81988598239
 20
19400.05620959502
 30
0.0
  0
VERTEX
  5
62E
  8
VENUE
  6
CONTINUOUS
 62
     7
 10
31053.09988598239
 20
19437.36320959502
 30
0.0
  0
VERTEX
  5
62F
  8
VENUE
  6
CONTINUOUS
 62
     7
 10
31090.92888598239
 20
19477.45020959502
 30
0.0
  0
VERTEX
  5
630
  8
VENUE
  6
CONTINUOUS
 62
     7
 10
31126.30488598239
 20
19520.31420959502
 30
0.0
  0
VERTEX
  5
631
  8
VENUE
  6
CONTINUOUS
 62
     7
 10
31159.23088598239
 20
19565.95720959502
 30
0.0
  0
VERTEX
  5
632
  8
VENUE
  6
CONTINUOUS
 62
     7
 10
31189.70288598239
 20
19614.37820959502
 30
0.0
  0
VERTEX
  5
633
  8
VENUE
  6
CONTINUOUS
 62
     7
 10
31217.72488598239
 20
19665.57820959502
 30
0.0
  0
VERTEX
  5
634
  8
VENUE
  6
CONTINUOUS
 62
     7
 10
31242.84488598239
 20
19718.67420959502
 30
0.0
  0
VERTEX
  5
635
  8
VENUE
  6
CONTINUOUS
 62
     7
 10
31264.61588598239
 20
19772.78820959502
 30
0.0
  0
VERTEX
  5
636
  8
VENUE
  6
CONTINUOUS
 62
     7
 10
31283.03688598239
 20
19827.91920959502
 30
0.0
  0
VERTEX
  5
637
  8
VENUE
  6
CONTINUOUS
 62
     7
 10
31298.10988598239
 20
19884.06820959502
 30
0.0
  0
VERTEX
  5
638
  8
VENUE
  6
CONTINUOUS
 62
     7
 10
31309.83188598239
 20
19941.23220959502
 30
0.0
  0
VERTEX
  5
639
  8
VENUE
  6
CONTINUOUS
 62
     7
 10
31318.20588598239
 20
19999.41420959502
 30
0.0
  0
VERTEX
  5
63A
  8
VENUE
  6
CONTINUOUS
 62
     7
 10
31323.22988598239
 20
20058.61320959502
 30
0.0
  0
VERTEX
  5
63B
  8
VENUE
  6
CONTINUOUS
 62
     7
 10
31324.90488598239
 20
20118.82920959502
 30
0.0
  0
SEQEND
  5
78E
  8
VENUE
  6
CONTINUOUS
 62
     7
  0
POLYLINE
  5
424
  8
VENUE
  6
CONTINUOUS
 62
     7
 66
     1
 10
0.0
 20
0.0
 30
0.0
 70
   128
  0
VERTEX
  5
63C
  8
VENUE
  6
CONTINUOUS
 62
     7
 10
30524.90488598239
 20
18305.82920959502
 30
0.0
  0
VERTEX
  5
63D
  8
VENUE
  6
CONTINUOUS
 62
     7
 10
31324.90488598239
 20
18305.82920959502
 30
0.0
  0
VERTEX
  5
63E
  8
VENUE
  6
CONTINUOUS
 62
     7
 10
31323.22988598239
 20
18366.04320959502
 30
0.0
  0
VERTEX
  5
63F
  8
VENUE
  6
CONTINUOUS
 62
     7
 10
31318.20588598239
 20
18425.24220959502
 30
0.0
  0
VERTEX
  5
640
  8
VENUE
  6
CONTINUOUS
 62
     7
 10
31309.83188598239
 20
18483.42320959502
 30
0.0
  0
VERTEX
  5
641
  8
VENUE
  6
CONTINUOUS
 62
     7
 10
31298.10988598239
 20
18540.58820959502
 30
0.0
  0
VERTEX
  5
642
  8
VENUE
  6
CONTINUOUS
 62
     7
 10
31283.03688598239
 20
18596.73520959502
 30
0.0
  0
VERTEX
  5
643
  8
VENUE
  6
CONTINUOUS
 62
     7
 10
31264.61588598239
 20
18651.86620959502
 30
0.0
  0
VERTEX
  5
644
  8
VENUE
  6
CONTINUOUS
 62
     7
 10
31242.84488598239
 20
18705.98020959502
 30
0.0
  0
VERTEX
  5
645
  8
VENUE
  6
CONTINUOUS
 62
     7
 10
31217.72488598239
 20
18759.07820959502
 30
0.0
  0
VERTEX
  5
646
  8
VENUE
  6
CONTINUOUS
 62
     7
 10
31189.70288598239
 20
18810.27720959502
 30
0.0
  0
VERTEX
  5
647
  8
VENUE
  6
CONTINUOUS
 62
     7
 10
31159.23088598239
 20
18858.69820959502
 30
0.0
  0
VERTEX
  5
648
  8
VENUE
  6
CONTINUOUS
 62
     7
 10
31126.30488598239
 20
18904.34120959502
 30
0.0
  0
VERTEX
  5
649
  8
VENUE
  6
CONTINUOUS
 62
     7
 10
31090.92888598239
 20
18947.20620959502
 30
0.0
  0
VERTEX
  5
64A
  8
VENUE
  6
CONTINUOUS
 62
     7
 10
31053.09988598239
 20
18987.29120959502
 30
0.0
  0
VERTEX
  5
64B
  8
VENUE
  6
CONTINUOUS
 62
     7
 10
31012.81988598239
 20
19024.60020959502
 30
0.0
  0
VERTEX
  5
64C
  8
VENUE
  6
CONTINUOUS
 62
     7
 10
30970.08788598239
 20
19059.12920959502
 30
0.0
  0
VERTEX
  5
64D
  8
VENUE
  6
CONTINUOUS
 62
     7
 10
30924.90388598239
 20
19090.88120959502
 30
0.0
  0
VERTEX
  5
64E
  8
VENUE
  6
CONTINUOUS
 62
     7
 10
30878.04488598239
 20
19119.34520959502
 30
0.0
  0
VERTEX
  5
64F
  8
VENUE
  6
CONTINUOUS
 62
     7
 10
30830.28888598239
 20
19144.01420959502
 30
0.0
  0
VERTEX
  5
650
  8
VENUE
  6
CONTINUOUS
 62
     7
 10
30781.63488598239
 20
19164.88820959502
 30
0.0
  0
VERTEX
  5
651
  8
VENUE
  6
CONTINUOUS
 62
     7
 10
30732.08388598239
 20
19181.96720959502
 30
0.0
  0
VERTEX
  5
652
  8
VENUE
  6
CONTINUOUS
 62
     7
 10
30681.63488598239
 20
19195.25020959501
 30
0.0
  0
VERTEX
  5
653
  8
VENUE
  6
CONTINUOUS
 62
     7
 10
30630.28888598239
 20
19204.73820959502
 30
0.0
  0
VERTEX
  5
654
  8
VENUE
  6
CONTINUOUS
 62
     7
 10
30578.04488598239
 20
19210.43120959502
 30
0.0
  0
VERTEX
  5
655
  8
VENUE
  6
CONTINUOUS
 62
     7
 10
30524.90488598239
 20
19212.32920959502
 30
0.0
  0
SEQEND
  5
78F
  8
VENUE
  6
CONTINUOUS
 62
     7
  0
POLYLINE
  5
425
  8
VENUE
  6
CONTINUOUS
 62
     7
 66
     1
 10
0.0
 20
0.0
 30
0.0
 70
   129
  0
VERTEX
  5
656
  8
VENUE
  6
CONTINUOUS
 62
     7
 10
30524.90488598239
 20
6205.829209595018
 30
0.0
  0
VERTEX
  5
657
  8
VENUE
  6
CONTINUOUS
 62
     7
 10
29374.90488598239
 20
6205.829209595018
 30
0.0
  0
VERTEX
  5
658
  8
VENUE
  6
CONTINUOUS
 62
     7
 10
29374.90488598239
 20
4955.829209595018
 30
0.0
  0
VERTEX
  5
659
  8
VENUE
  6
CONTINUOUS
 62
     7
 10
29574.90488598239
 20
4955.829209595018
 30
0.0
  0
VERTEX
  5
65A
  8
VENUE
  6
CONTINUOUS
 62
     7
 10
29574.90488598239
 20
6055.829209595018
 30
0.0
  0
VERTEX
  5
65B
  8
VENUE
  6
CONTINUOUS
 62
     7
 10
30224.90488598239
 20
6055.829209595018
 30
0.0
  0
VERTEX
  5
65C
  8
VENUE
  6
CONTINUOUS
 62
     7
 10
30224.90488598239
 20
4955.829209595018
 30
0.0
  0
VERTEX
  5
65D
  8
VENUE
  6
CONTINUOUS
 62
     7
 10
29224.90488598239
 20
4955.829209595018
 30
0.0
  0
VERTEX
  5
65E
  8
VENUE
  6
CONTINUOUS
 62
     7
 10
29224.90488598239
 20
3655.829209595018
 30
0.0
  0
VERTEX
  5
65F
  8
VENUE
  6
CONTINUOUS
 62
     7
 10
29740.90488598239
 20
3655.829209595018
 30
0.0
  0
VERTEX
  5
660
  8
VENUE
  6
CONTINUOUS
 62
     7
 10
29740.90488598239
 20
3355.829209595018
 30
0.0
  0
VERTEX
  5
661
  8
VENUE
  6
CONTINUOUS
 62
     7
 10
29940.90488598239
 20
3355.829209595018
 30
0.0
  0
VERTEX
  5
662
  8
VENUE
  6
CONTINUOUS
 62
     7
 10
29940.90488598239
 20
3655.829209595018
 30
0.0
  0
VERTEX
  5
663
  8
VENUE
  6
CONTINUOUS
 62
     7
 10
30524.90488598239
 20
3655.829209595018
 30
0.0
  0
SEQEND
  5
790
  8
VENUE
  6
CONTINUOUS
 62
     7
  0
POLYLINE
  5
426
  8
VENUE
  6
CONTINUOUS
 62
     7
 66
     1
 10
0.0
 20
0.0
 30
0.0
 70
   129
  0
VERTEX
  5
664
  8
VENUE
  6
CONTINUOUS
 62
     7
 10
1456.904885982389
 20
-1961.170790404982
 30
0.0
  0
VERTEX
  5
665
  8
VENUE
  6
CONTINUOUS
 62
     7
 10
2798.904885982389
 20
-1961.170790404982
 30
0.0
  0
VERTEX
  5
666
  8
VENUE
  6
CONTINUOUS
 62
     7
 10
2798.904885982389
 20
-1661.170790404982
 30
0.0
  0
VERTEX
  5
667
  8
VENUE
  6
CONTINUOUS
 62
     7
 10
2948.904885982389
 20
-1661.170790404982
 30
0.0
  0
VERTEX
  5
668
  8
VENUE
  6
CONTINUOUS
 62
     7
 10
2948.904885982389
 20
-1961.170790404982
 30
0.0
  0
VERTEX
  5
669
  8
VENUE
  6
CONTINUOUS
 62
     7
 10
3148.904885982389
 20
-1961.170790404982
 30
0.0
  0
VERTEX
  5
66A
  8
VENUE
  6
CONTINUOUS
 62
     7
 10
3148.904885982389
 20
-2861.170790404982
 30
0.0
  0
VERTEX
  5
66B
  8
VENUE
  6
CONTINUOUS
 62
     7
 10
2248.904885982389
 20
-2861.170790404982
 30
0.0
  0
VERTEX
  5
66C
  8
VENUE
  6
CONTINUOUS
 62
     7
 10
2248.904885982389
 20
-2161.170790404982
 30
0.0
  0
VERTEX
  5
66D
  8
VENUE
  6
CONTINUOUS
 62
     7
 10
1456.904885982389
 20
-2161.170790404982
 30
0.0
  0
SEQEND
  5
791
  8
VENUE
  6
CONTINUOUS
 62
     7
  0
POLYLINE
  5
427
  8
VENUE
  6
CONTINUOUS
 62
     7
 66
     1
 10
0.0
 20
0.0
 30
0.0
 70
   129
  0
VERTEX
  5
66E
  8
VENUE
  6
CONTINUOUS
 62
     7
 10
30524.90488598239
 20
28118.82920959502
 30
0.0
  0
VERTEX
  5
66F
  8
VENUE
  6
CONTINUOUS
 62
     7
 10
30274.90488598239
 20
28118.82920959502
 30
0.0
  0
VERTEX
  5
670
  8
VENUE
  6
CONTINUOUS
 62
     7
 10
30274.90488598239
 20
27718.82920959502
 30
0.0
  0
VERTEX
  5
671
  8
VENUE
  6
CONTINUOUS
 62
     7
 10
29374.90488598239
 20
27718.82920959502
 30
0.0
  0
VERTEX
  5
672
  8
VENUE
  6
CONTINUOUS
 62
     7
 10
29374.90488598239
 20
27468.82920959502
 30
0.0
  0
VERTEX
  5
673
  8
VENUE
  6
CONTINUOUS
 62
     7
 10
28824.90488598239
 20
27468.82920959502
 30
0.0
  0
VERTEX
  5
674
  8
VENUE
  6
CONTINUOUS
 62
     7
 10
28824.90488598239
 20
27168.82920959502
 30
0.0
  0
VERTEX
  5
675
  8
VENUE
  6
CONTINUOUS
 62
     7
 10
29374.90488598239
 20
27168.82920959502
 30
0.0
  0
VERTEX
  5
676
  8
VENUE
  6
CONTINUOUS
 62
     7
 10
29374.90488598239
 20
24655.82920959502
 30
0.0
  0
VERTEX
  5
677
  8
VENUE
  6
CONTINUOUS
 62
     7
 10
29574.90488598239
 20
24655.82920959502
 30
0.0
  0
VERTEX
  5
678
  8
VENUE
  6
CONTINUOUS
 62
     7
 10
29574.90488598239
 20
26918.82920959502
 30
0.0
  0
VERTEX
  5
679
  8
VENUE
  6
CONTINUOUS
 62
     7
 10
30224.90488598239
 20
26918.82920959502
 30
0.0
  0
VERTEX
  5
67A
  8
VENUE
  6
CONTINUOUS
 62
     7
 10
30224.90488598239
 20
24655.82920959502
 30
0.0
  0
VERTEX
  5
67B
  8
VENUE
  6
CONTINUOUS
 62
     7
 10
29224.90488598239
 20
24655.82920959502
 30
0.0
  0
VERTEX
  5
67C
  8
VENUE
  6
CONTINUOUS
 62
     7
 10
29224.90488598239
 20
23305.82920959502
 30
0.0
  0
VERTEX
  5
67D
  8
VENUE
  6
CONTINUOUS
 62
     7
 10
30224.90488598239
 20
23305.82920959502
 30
0.0
  0
VERTEX
  5
67E
  8
VENUE
  6
CONTINUOUS
 62
     7
 10
30224.90488598239
 20
20368.82920959502
 30
0.0
  0
VERTEX
  5
67F
  8
VENUE
  6
CONTINUOUS
 62
     7
 10
29574.90488598239
 20
20368.82920959502
 30
0.0
  0
VERTEX
  5
680
  8
VENUE
  6
CONTINUOUS
 62
     7
 10
29574.90488598239
 20
23305.82920959502
 30
0.0
  0
VERTEX
  5
681
  8
VENUE
  6
CONTINUOUS
 62
     7
 10
29374.90488598239
 20
23305.82920959502
 30
0.0
  0
VERTEX
  5
682
  8
VENUE
  6
CONTINUOUS
 62
     7
 10
29374.90488598239
 20
20168.82920959502
 30
0.0
  0
VERTEX
  5
683
  8
VENUE
  6
CONTINUOUS
 62
     7
 10
30224.90488598239
 20
20168.82920959502
 30
0.0
  0
VERTEX
  5
684
  8
VENUE
  6
CONTINUOUS
 62
     7
 10
30224.90488598239
 20
20118.82920959502
 30
0.0
  0
VERTEX
  5
685
  8
VENUE
  6
CONTINUOUS
 62
     7
 10
30524.90488598239
 20
20118.82920959502
 30
0.0
  0
SEQEND
  5
792
  8
VENUE
  6
CONTINUOUS
 62
     7
  0
POLYLINE
  5
428
  8
VENUE
  6
CONTINUOUS
 62
     7
 66
     1
 10
0.0
 20
0.0
 30
0.0
 70
   129
  0
VERTEX
  5
686
  8
VENUE
  6
CONTINUOUS
 62
     7
 10
17540.90488598239
 20
27468.82920959502
 30
0.0
  0
VERTEX
  5
687
  8
VENUE
  6
CONTINUOUS
 62
     7
 10
22382.90488598239
 20
27468.82920959502
 30
0.0
  0
VERTEX
  5
688
  8
VENUE
  6
CONTINUOUS
 62
     7
 10
22382.90488598239
 20
27718.82920959502
 30
0.0
  0
VERTEX
  5
689
  8
VENUE
  6
CONTINUOUS
 62
     7
 10
23182.90488598239
 20
27718.82920959502
 30
0.0
  0
VERTEX
  5
68A
  8
VENUE
  6
CONTINUOUS
 62
     7
 10
23182.90488598239
 20
27468.82920959502
 30
0.0
  0
VERTEX
  5
68B
  8
VENUE
  6
CONTINUOUS
 62
     7
 10
28024.90488598239
 20
27468.82920959502
 30
0.0
  0
VERTEX
  5
68C
  8
VENUE
  6
CONTINUOUS
 62
     7
 10
28024.90488598239
 20
27168.82920959502
 30
0.0
  0
VERTEX
  5
68D
  8
VENUE
  6
CONTINUOUS
 62
     7
 10
23182.90488598239
 20
27168.82920959502
 30
0.0
  0
VERTEX
  5
68E
  8
VENUE
  6
CONTINUOUS
 62
     7
 10
23182.90488598239
 20
26918.82920959502
 30
0.0
  0
VERTEX
  5
68F
  8
VENUE
  6
CONTINUOUS
 62
     7
 10
22382.90488598239
 20
26918.82920959502
 30
0.0
  0
VERTEX
  5
690
  8
VENUE
  6
CONTINUOUS
 62
     7
 10
22382.90488598239
 20
27168.82920959502
 30
0.0
  0
VERTEX
  5
691
  8
VENUE
  6
CONTINUOUS
 62
     7
 10
17540.90488598239
 20
27168.82920959502
 30
0.0
  0
SEQEND
  5
793
  8
VENUE
  6
CONTINUOUS
 62
     7
  0
LINE
  5
429
  8
VENUE
  6
CONTINUOUS
 62
     7
 10
2448.904885982389
 20
2138.829209595018
 30
0.0
 11
3148.904885982389
 21
2138.829209595018
 31
0.0
  0
LINE
  5
42A
  8
VENUE
  6
CONTINUOUS
 62
     7
 10
2448.904885982389
 20
2938.829209595018
 30
0.0
 11
3148.904885982389
 21
2938.829209595018
 31
0.0
  0
LINE
  5
42B
  8
VENUE
  6
CONTINUOUS
 62
     7
 10
2448.904885982389
 20
4938.829209595018
 30
0.0
 11
3183.633885982388
 21
4938.829209595018
 31
0.0
  0
LINE
  5
42C
  8
VENUE
  6
CONTINUOUS
 62
     7
 10
2448.904885982389
 20
5738.829209595018
 30
0.0
 11
3183.633885982388
 21
5738.829209595018
 31
0.0
  0
LINE
  5
42D
  8
VENUE
  6
CONTINUOUS
 62
     7
 10
2448.904885982389
 20
5738.829209595018
 30
0.0
 11
2448.904885982389
 21
9938.829209595018
 31
0.0
  0
LINE
  5
42E
  8
VENUE
  6
CONTINUOUS
 62
     7
 10
2448.904885982389
 20
4938.829209595018
 30
0.0
 11
2448.904885982389
 21
2938.829209595018
 31
0.0
  0
LINE
  5
42F
  8
VENUE
  6
CONTINUOUS
 62
     7
 10
41174.90488598239
 20
19305.82920959502
 30
0.0
 11
41174.90488598239
 21
17655.82920959502
 31
0.0
  0
LINE
  5
430
  8
VENUE
  6
CONTINUOUS
 62
     7
 10
41474.90488598239
 20
19605.82920959502
 30
0.0
 11
41474.90488598239
 21
17305.82920959502
 31
0.0
  0
POLYLINE
  5
431
  8
VENUE
  6
CONTINUOUS
 62
     7
 66
     1
 10
0.0
 20
0.0
 30
0.0
 70
   129
  0
VERTEX
  5
692
  8
VENUE
  6
CONTINUOUS
 62
     7
 10
32924.90488598239
 20
11155.82920959502
 30
0.0
  0
VERTEX
  5
693
  8
VENUE
  6
CONTINUOUS
 62
     7
 10
33124.90488598239
 20
11255.82920959502
 30
0.0
  0
VERTEX
  5
694
  8
VENUE
  6
CONTINUOUS
 62
     7
 10
33124.90488598239
 20
10655.82920959502
 30
0.0
  0
VERTEX
  5
695
  8
VENUE
  6
CONTINUOUS
 62
     7
 10
32924.90488598239
 20
10655.82920959502
 30
0.0
  0
SEQEND
  5
794
  8
VENUE
  6
CONTINUOUS
 62
     7
  0
POLYLINE
  5
432
  8
VENUE
  6
CONTINUOUS
 62
     7
 66
     1
 10
0.0
 20
0.0
 30
0.0
 70
   129
  0
VERTEX
  5
696
  8
VENUE
  6
CONTINUOUS
 62
     7
 10
34374.90488598239
 20
27331.82920959502
 30
0.0
  0
VERTEX
  5
697
  8
VENUE
  6
CONTINUOUS
 62
     7
 10
34174.90488598239
 20
27331.82920959502
 30
0.0
  0
VERTEX
  5
698
  8
VENUE
  6
CONTINUOUS
 62
     7
 10
34174.90488598239
 20
26731.82920959502
 30
0.0
  0
VERTEX
  5
699
  8
VENUE
  6
CONTINUOUS
 62
     7
 10
36674.90488598239
 20
26731.82920959502
 30
0.0
  0
VERTEX
  5
69A
  8
VENUE
  6
CONTINUOUS
 62
     7
 10
36674.90488598239
 20
26931.82920959502
 30
0.0
  0
VERTEX
  5
69B
  8
VENUE
  6
CONTINUOUS
 62
     7
 10
34374.90488598239
 20
26931.82920959502
 30
0.0
  0
SEQEND
  5
795
  8
VENUE
  6
CONTINUOUS
 62
     7
  0
LINE
  5
433
  8
VENUE
  6
CONTINUOUS
 62
     7
 10
8073.904885982389
 20
-12000.17079040498
 30
0.0
 11
8073.904885982389
 21
-7940.170790404984
 31
0.0
  0
LINE
  5
434
  8
VENUE
  6
CONTINUOUS
 62
     7
 10
7973.904885982389
 20
-12000.17079040498
 30
0.0
 11
7973.904885982389
 21
-7940.170790404984
 31
0.0
  0
ARC
  5
435
  8
VENUE
  6
CONTINUOUS
 62
     7
 10
8023.904885982389
 20
-7944.170790404984
 30
0.0
 40
50.0
 50
0.0
 51
180.0
  0
ARC
  5
436
  8
VENUE
  6
CONTINUOUS
 62
     7
 10
8023.904885982389
 20
-11994.17079040498
 30
0.0
 40
50.0
 50
180.0
 51
0.0
  0
LINE
  5
437
  8
VENUE
  6
CONTINUOUS
 62
     7
 10
10940.40488598239
 20
-11894.17079040498
 30
0.0
 11
10940.40488598239
 21
-9878.049790404984
 31
0.0
  0
LINE
  5
438
  8
VENUE
  6
CONTINUOUS
 62
     7
 10
10040.40488598239
 20
-11980.17079040498
 30
0.0
 11
10040.40488598239
 21
-8544.170790404984
 31
0.0
  0
LINE
  5
439
  8
VENUE
  6
CONTINUOUS
 62
     7
 10
10190.40488598239
 20
-11894.17579040498
 30
0.0
 11
10190.40488598239
 21
-8544.170790404984
 31
0.0
  0
LINE
  5
43A
  8
VENUE
  6
CONTINUOUS
 62
     7
 10
10115.40488598239
 20
-11894.17079040498
 30
0.0
 11
10115.40488598239
 21
-8544.170790404984
 31
0.0
  0
LINE
  5
43B
  8
VENUE
  6
CONTINUOUS
 62
     7
 10
10790.40488598239
 20
-11894.17079040498
 30
0.0
 11
10790.40488598239
 21
-9915.498790404985
 31
0.0
  0
LINE
  5
43C
  8
VENUE
  6
CONTINUOUS
 62
     7
 10
10865.40488598239
 20
-11894.17079040498
 30
0.0
 11
10865.40488598239
 21
-9896.773790404979
 31
0.0
  0
ARC
  5
43D
  8
VENUE
  6
CONTINUOUS
 62
     7
 10
10490.40488598239
 20
-11894.17079040498
 30
0.0
 40
450.0000000000002
 50
180.0005089999997
 51
0.0
  0
ARC
  5
43E
  8
VENUE
  6
CONTINUOUS
 62
     7
 10
10490.40488598239
 20
-11894.17079040498
 30
0.0
 40
374.9999999999991
 50
180.0004580000001
 51
0.0
  0
ARC
  5
43F
  8
VENUE
  6
CONTINUOUS
 62
     7
 10
10490.40488598239
 20
-11894.17079040498
 30
0.0
 40
299.9999999999991
 50
180.0005729999997
 51
0.0
  0
LINE
  5
440
  8
VENUE
  6
CONTINUOUS
 62
     7
 10
10040.40488598239
 20
-11544.17079040498
 30
0.0
 11
8073.904885982389
 21
-11544.17079040498
 31
0.0
  0
LINE
  5
441
  8
VENUE
  6
CONTINUOUS
 62
     7
 10
10940.40488598239
 20
-11544.17079040498
 30
0.0
 11
12906.90488598239
 21
-11544.17079040498
 31
0.0
  0
LINE
  5
442
  8
VENUE
  6
CONTINUOUS
 62
     7
 10
10040.40488598239
 20
-11244.17079040498
 30
0.0
 11
8073.904885982389
 21
-11244.17079040498
 31
0.0
  0
LINE
  5
443
  8
VENUE
  6
CONTINUOUS
 62
     7
 10
10040.40488598239
 20
-10944.17079040498
 30
0.0
 11
8073.904885982389
 21
-10944.17079040498
 31
0.0
  0
LINE
  5
444
  8
VENUE
  6
CONTINUOUS
 62
     7
 10
10040.40488598239
 20
-10644.17079040498
 30
0.0
 11
8073.904885982389
 21
-10644.17079040498
 31
0.0
  0
LINE
  5
445
  8
VENUE
  6
CONTINUOUS
 62
     7
 10
10040.40488598239
 20
-10344.17079040498
 30
0.0
 11
8073.904885982389
 21
-10344.17079040498
 31
0.0
  0
LINE
  5
446
  8
VENUE
  6
CONTINUOUS
 62
     7
 10
10040.40488598239
 20
-10044.17079040498
 30
0.0
 11
8073.904885982389
 21
-10044.17079040498
 31
0.0
  0
LINE
  5
447
  8
VENUE
  6
CONTINUOUS
 62
     7
 10
10040.40488598239
 20
-9744.170790404984
 30
0.0
 11
8073.904885982389
 21
-9744.170790404984
 31
0.0
  0
LINE
  5
448
  8
VENUE
  6
CONTINUOUS
 62
     7
 10
10040.40488598239
 20
-9444.170790404984
 30
0.0
 11
8073.904885982389
 21
-9444.170790404984
 31
0.0
  0
LINE
  5
449
  8
VENUE
  6
CONTINUOUS
 62
     7
 10
10040.40488598239
 20
-9144.170790404984
 30
0.0
 11
8073.904885982389
 21
-9144.170790404984
 31
0.0
  0
LINE
  5
44A
  8
VENUE
  6
CONTINUOUS
 62
     7
 10
10040.40488598239
 20
-8844.170790404984
 30
0.0
 11
8073.904885982389
 21
-8844.170790404984
 31
0.0
  0
LINE
  5
44B
  8
VENUE
  6
CONTINUOUS
 62
     7
 10
10040.40488598239
 20
-8544.170790404984
 30
0.0
 11
8073.904885982389
 21
-8544.170790404984
 31
0.0
  0
LINE
  5
44C
  8
VENUE
  6
CONTINUOUS
 62
     7
 10
10085.43988598239
 20
-8244.170790404984
 30
0.0
 11
8073.904885982389
 21
-8244.170790404984
 31
0.0
  0
LINE
  5
44D
  8
VENUE
  6
CONTINUOUS
 62
     7
 10
10271.48388598239
 20
-7944.170790404984
 30
0.0
 11
8073.904885982389
 21
-7944.170790404984
 31
0.0
  0
LINE
  5
44E
  8
VENUE
  6
CONTINUOUS
 62
     7
 10
10940.40488598239
 20
-11244.17079040498
 30
0.0
 11
12906.90488598239
 21
-11244.17079040498
 31
0.0
  0
LINE
  5
44F
  8
VENUE
  6
CONTINUOUS
 62
     7
 10
10940.40488598239
 20
-10944.17079040498
 30
0.0
 11
12906.90488598239
 21
-10944.17079040498
 31
0.0
  0
LINE
  5
450
  8
VENUE
  6
CONTINUOUS
 62
     7
 10
10940.40488598239
 20
-10644.17079040498
 30
0.0
 11
12906.90488598239
 21
-10644.17079040498
 31
0.0
  0
LINE
  5
451
  8
VENUE
  6
CONTINUOUS
 62
     7
 10
10940.40488598239
 20
-10344.17079040498
 30
0.0
 11
12906.90488598239
 21
-10344.17079040498
 31
0.0
  0
LINE
  5
452
  8
VENUE
  6
CONTINUOUS
 62
     7
 10
10940.40488598239
 20
-10044.17079040498
 30
0.0
 11
12906.90488598239
 21
-10044.17079040498
 31
0.0
  0
LINE
  5
453
  8
VENUE
  6
CONTINUOUS
 62
     7
 10
11476.64688598239
 20
-9744.170790404984
 30
0.0
 11
12906.90488598239
 21
-9744.170790404984
 31
0.0
  0
LINE
  5
454
  8
VENUE
  6
CONTINUOUS
 62
     7
 10
12906.90488598239
 20
-9387.090790404982
 30
0.0
 11
10790.40488598239
 21
-9915.498790404985
 31
0.0
  0
POLYLINE
  5
455
  8
VENUE
  6
CONTINUOUS
 62
     7
 66
     1
 10
0.0
 20
0.0
 30
0.0
 70
   128
  0
VERTEX
  5
69C
  8
VENUE
  6
CONTINUOUS
 62
     7
 10
10484.90488598239
 20
-8544.170790404984
 30
0.0
  0
VERTEX
  5
69D
  8
VENUE
  6
CONTINUOUS
 62
     7
 10
10484.90488598239
 20
-7860.170790404984
 30
0.0
  0
VERTEX
  5
69E
  8
VENUE
  6
CONTINUOUS
 62
     7
 10
10455.37788598239
 20
-7861.602790404984
 30
0.0
  0
VERTEX
  5
69F
  8
VENUE
  6
CONTINUOUS
 62
     7
 10
10426.34988598239
 20
-7865.898790404979
 30
0.0
  0
VERTEX
  5
6A0
  8
VENUE
  6
CONTINUOUS
 62
     7
 10
10397.81988598239
 20
-7873.058790404983
 30
0.0
  0
VERTEX
  5
6A1
  8
VENUE
  6
CONTINUOUS
 62
     7
 10
10369.78988598239
 20
-7883.08079040498
 30
0.0
  0
VERTEX
  5
6A2
  8
VENUE
  6
CONTINUOUS
 62
     7
 10
10342.25788598239
 20
-7895.968790404979
 30
0.0
  0
VERTEX
  5
6A3
  8
VENUE
  6
CONTINUOUS
 62
     7
 10
10315.22488598239
 20
-7911.718790404979
 30
0.0
  0
VERTEX
  5
6A4
  8
VENUE
  6
CONTINUOUS
 62
     7
 10
10288.68988598239
 20
-7930.33279040498
 30
0.0
  0
VERTEX
  5
6A5
  8
VENUE
  6
CONTINUOUS
 62
     7
 10
10262.65488598239
 20
-7951.809790404979
 30
0.0
  0
VERTEX
  5
6A6
  8
VENUE
  6
CONTINUOUS
 62
     7
 10
10237.54888598239
 20
-7975.768790404982
 30
0.0
  0
VERTEX
  5
6A7
  8
VENUE
  6
CONTINUOUS
 62
     7
 10
10213.80588598239
 20
-8001.822790404978
 30
0.0
  0
VERTEX
  5
6A8
  8
VENUE
  6
CONTINUOUS
 62
     7
 10
10191.42488598239
 20
-8029.973790404983
 30
0.0
  0
VERTEX
  5
6A9
  8
VENUE
  6
CONTINUOUS
 62
     7
 10
10170.40688598239
 20
-8060.219790404983
 30
0.0
  0
VERTEX
  5
6AA
  8
VENUE
  6
CONTINUOUS
 62
     7
 10
10150.74988598239
 20
-8092.56379040498
 30
0.0
  0
VERTEX
  5
6AB
  8
VENUE
  6
CONTINUOUS
 62
     7
 10
10132.45688598239
 20
-8127.002790404978
 30
0.0
  0
VERTEX
  5
6AC
  8
VENUE
  6
CONTINUOUS
 62
     7
 10
10115.52588598239
 20
-8163.538790404978
 30
0.0
  0
VERTEX
  5
6AD
  8
VENUE
  6
CONTINUOUS
 62
     7
 10
10099.95688598239
 20
-8202.170790404984
 30
0.0
  0
VERTEX
  5
6AE
  8
VENUE
  6
CONTINUOUS
 62
     7
 10
10085.99888598239
 20
-8242.235790404979
 30
0.0
  0
VERTEX
  5
6AF
  8
VENUE
  6
CONTINUOUS
 62
     7
 10
10073.90288598239
 20
-8283.066790404984
 30
0.0
  0
VERTEX
  5
6B0
  8
VENUE
  6
CONTINUOUS
 62
     7
 10
10063.66688598239
 20
-8324.665790404979
 30
0.0
  0
VERTEX
  5
6B1
  8
VENUE
  6
CONTINUOUS
 62
     7
 10
10055.29288598239
 20
-8367.03179040498
 30
0.0
  0
VERTEX
  5
6B2
  8
VENUE
  6
CONTINUOUS
 62
     7
 10
10048.77888598239
 20
-8410.165790404979
 30
0.0
  0
VERTEX
  5
6B3
  8
VENUE
  6
CONTINUOUS
 62
     7
 10
10044.12688598239
 20
-8454.066790404984
 30
0.0
  0
VERTEX
  5
6B4
  8
VENUE
  6
CONTINUOUS
 62
     7
 10
10041.33488598239
 20
-8498.735790404979
 30
0.0
  0
VERTEX
  5
6B5
  8
VENUE
  6
CONTINUOUS
 62
     7
 10
10040.40488598239
 20
-8544.170790404984
 30
0.0
  0
SEQEND
  5
796
  8
VENUE
  6
CONTINUOUS
 62
     7
  0
POLYLINE
  5
456
  8
VENUE
  6
CONTINUOUS
 62
     7
 66
     1
 10
0.0
 20
0.0
 30
0.0
 70
   128
  0
VERTEX
  5
6B6
  8
VENUE
  6
CONTINUOUS
 62
     7
 10
10484.90488598239
 20
-8544.170790404984
 30
0.0
  0
VERTEX
  5
6B7
  8
VENUE
  6
CONTINUOUS
 62
     7
 10
10484.90488598239
 20
-7940.170790404984
 30
0.0
  0
VERTEX
  5
6B8
  8
VENUE
  6
CONTINUOUS
 62
     7
 10
10460.35988598239
 20
-7941.435790404983
 30
0.0
  0
VERTEX
  5
6B9
  8
VENUE
  6
CONTINUOUS
 62
     7
 10
10436.22988598239
 20
-7945.228790404981
 30
0.0
  0
VERTEX
  5
6BA
  8
VENUE
  6
CONTINUOUS
 62
     7
 10
10412.51388598239
 20
-7951.551790404985
 30
0.0
  0
VERTEX
  5
6BB
  8
VENUE
  6
CONTINUOUS
 62
     7
 10
10389.21288598239
 20
-7960.401790404983
 30
0.0
  0
VERTEX
  5
6BC
  8
VENUE
  6
CONTINUOUS
 62
     7
 10
10366.32588598239
 20
-7971.781790404981
 30
0.0
  0
VERTEX
  5
6BD
  8
VENUE
  6
CONTINUOUS
 62
     7
 10
10343.85388598239
 20
-7985.689790404984
 30
0.0
  0
VERTEX
  5
6BE
  8
VENUE
  6
CONTINUOUS
 62
     7
 10
10321.79688598239
 20
-8002.126790404982
 30
0.0
  0
VERTEX
  5
6BF
  8
VENUE
  6
CONTINUOUS
 62
     7
 10
10300.15488598239
 20
-8021.091790404978
 30
0.0
  0
VERTEX
  5
6C0
  8
VENUE
  6
CONTINUOUS
 62
     7
 10
10279.28488598239
 20
-8042.247790404981
 30
0.0
  0
VERTEX
  5
6C1
  8
VENUE
  6
CONTINUOUS
 62
     7
 10
10259.54788598239
 20
-8065.254790404979
 30
0.0
  0
VERTEX
  5
6C2
  8
VENUE
  6
CONTINUOUS
 62
     7
 10
10240.94388598239
 20
-8090.112790404979
 30
0.0
  0
VERTEX
  5
6C3
  8
VENUE
  6
CONTINUOUS
 62
     7
 10
10223.47188598239
 20
-8116.821790404982
 30
0.0
  0
VERTEX
  5
6C4
  8
VENUE
  6
CONTINUOUS
 62
     7
 10
10207.13188598239
 20
-8145.382790404983
 30
0.0
  0
VERTEX
  5
6C5
  8
VENUE
  6
CONTINUOUS
 62
     7
 10
10191.92488598239
 20
-8175.79479040498
 30
0.0
  0
VERTEX
  5
6C6
  8
VENUE
  6
CONTINUOUS
 62
     7
 10
10177.85088598239
 20
-8208.057790404979
 30
0.0
  0
VERTEX
  5
6C7
  8
VENUE
  6
CONTINUOUS
 62
     7
 10
10164.90888598239
 20
-8242.170790404984
 30
0.0
  0
VERTEX
  5
6C8
  8
VENUE
  6
CONTINUOUS
 62
     7
 10
10153.30588598239
 20
-8277.549790404984
 30
0.0
  0
VERTEX
  5
6C9
  8
VENUE
  6
CONTINUOUS
 62
     7
 10
10143.25088598239
 20
-8313.605790404981
 30
0.0
  0
VERTEX
  5
6CA
  8
VENUE
  6
CONTINUOUS
 62
     7
 10
10134.74188598239
 20
-8350.338790404981
 30
0.0
  0
VERTEX
  5
6CB
  8
VENUE
  6
CONTINUOUS
 62
     7
 10
10127.78088598239
 20
-8387.749790404981
 30
0.0
  0
VERTEX
  5
6CC
  8
VENUE
  6
CONTINUOUS
 62
     7
 10
10122.36588598239
 20
-8425.838790404981
 30
0.0
  0
VERTEX
  5
6CD
  8
VENUE
  6
CONTINUOUS
 62
     7
 10
10118.49888598239
 20
-8464.605790404981
 30
0.0
  0
VERTEX
  5
6CE
  8
VENUE
  6
CONTINUOUS
 62
     7
 10
10116.17788598239
 20
-8504.049790404984
 30
0.0
  0
VERTEX
  5
6CF
  8
VENUE
  6
CONTINUOUS
 62
     7
 10
10115.40488598239
 20
-8544.170790404984
 30
0.0
  0
SEQEND
  5
797
  8
VENUE
  6
CONTINUOUS
 62
     7
  0
POLYLINE
  5
457
  8
VENUE
  6
CONTINUOUS
 62
     7
 66
     1
 10
0.0
 20
0.0
 30
0.0
 70
   128
  0
VERTEX
  5
6D0
  8
VENUE
  6
CONTINUOUS
 62
     7
 10
10490.40488598239
 20
-8544.170790404984
 30
0.0
  0
VERTEX
  5
6D1
  8
VENUE
  6
CONTINUOUS
 62
     7
 10
10490.40488598239
 20
-8010.170790404984
 30
0.0
  0
VERTEX
  5
6D2
  8
VENUE
  6
CONTINUOUS
 62
     7
 10
10470.47688598239
 20
-8011.288790404978
 30
0.0
  0
VERTEX
  5
6D3
  8
VENUE
  6
CONTINUOUS
 62
     7
 10
10450.88588598239
 20
-8014.642790404985
 30
0.0
  0
VERTEX
  5
6D4
  8
VENUE
  6
CONTINUOUS
 62
     7
 10
10431.63088598239
 20
-8020.232790404982
 30
0.0
  0
VERTEX
  5
6D5
  8
VENUE
  6
CONTINUOUS
 62
     7
 10
10412.71288598239
 20
-8028.056790404982
 30
0.0
  0
VERTEX
  5
6D6
  8
VENUE
  6
CONTINUOUS
 62
     7
 10
10394.13088598239
 20
-8038.117790404984
 30
0.0
  0
VERTEX
  5
6D7
  8
VENUE
  6
CONTINUOUS
 62
     7
 10
10375.88588598239
 20
-8050.413790404978
 30
0.0
  0
VERTEX
  5
6D8
  8
VENUE
  6
CONTINUOUS
 62
     7
 10
10357.97688598239
 20
-8064.945790404985
 30
0.0
  0
VERTEX
  5
6D9
  8
VENUE
  6
CONTINUOUS
 62
     7
 10
10340.40488598239
 20
-8081.712790404985
 30
0.0
  0
VERTEX
  5
6DA
  8
VENUE
  6
CONTINUOUS
 62
     7
 10
10323.45988598239
 20
-8100.417790404979
 30
0.0
  0
VERTEX
  5
6DB
  8
VENUE
  6
CONTINUOUS
 62
     7
 10
10307.43588598239
 20
-8120.757790404983
 30
0.0
  0
VERTEX
  5
6DC
  8
VENUE
  6
CONTINUOUS
 62
     7
 10
10292.32988598239
 20
-8142.735790404979
 30
0.0
  0
VERTEX
  5
6DD
  8
VENUE
  6
CONTINUOUS
 62
     7
 10
10278.14488598239
 20
-8166.348790404983
 30
0.0
  0
VERTEX
  5
6DE
  8
VENUE
  6
CONTINUOUS
 62
     7
 10
10264.87788598239
 20
-8191.59979040498
 30
0.0
  0
VERTEX
  5
6DF
  8
VENUE
  6
CONTINUOUS
 62
     7
 10
10252.53188598239
 20
-8218.486790404982
 30
0.0
  0
VERTEX
  5
6E0
  8
VENUE
  6
CONTINUOUS
 62
     7
 10
10241.10388598239
 20
-8247.01079040498
 30
0.0
  0
VERTEX
  5
6E1
  8
VENUE
  6
CONTINUOUS
 62
     7
 10
10230.59688598239
 20
-8277.170790404984
 30
0.0
  0
VERTEX
  5
6E2
  8
VENUE
  6
CONTINUOUS
 62
     7
 10
10221.17688598239
 20
-8308.449790404979
 30
0.0
  0
VERTEX
  5
6E3
  8
VENUE
  6
CONTINUOUS
 62
     7
 10
10213.01288598239
 20
-8340.326790404994
 30
0.0
  0
VERTEX
  5
6E4
  8
VENUE
  6
CONTINUOUS
 62
     7
 10
10206.10488598239
 20
-8372.803790404985
 30
0.0
  0
VERTEX
  5
6E5
  8
VENUE
  6
CONTINUOUS
 62
     7
 10
10200.45288598239
 20
-8405.878790404982
 30
0.0
  0
VERTEX
  5
6E6
  8
VENUE
  6
CONTINUOUS
 62
     7
 10
10196.05688598239
 20
-8439.553790404985
 30
0.0
  0
VERTEX
  5
6E7
  8
VENUE
  6
CONTINUOUS
 62
     7
 10
10192.91688598239
 20
-8473.826790404979
 30
0.0
  0
VERTEX
  5
6E8
  8
VENUE
  6
CONTINUOUS
 62
     7
 10
10191.03288598239
 20
-8508.699790404979
 30
0.0
  0
VERTEX
  5
6E9
  8
VENUE
  6
CONTINUOUS
 62
     7
 10
10190.40488598239
 20
-8544.170790404984
 30
0.0
  0
SEQEND
  5
798
  8
VENUE
  6
CONTINUOUS
 62
     7
  0
LINE
  5
458
  8
VENUE
  6
CONTINUOUS
 62
     7
 10
10484.90488598239
 20
-7860.170790404984
 30
0.0
 11
10490.40488598239
 21
-8010.170790404984
 31
0.0
  0
CIRCLE
  5
459
  8
VENUE
 62
     7
 10
9057.154885982389
 20
-7944.170790404984
 30
0.0
 40
105.8070000000007
  0
LINE
  5
45A
  8
VENUE
  6
CONTINUOUS
 62
     7
 10
9057.154885982389
 20
-7944.170790404984
 30
0.0
 11
9057.154885982389
 21
-13544.17079040498
 31
0.0
  0
SOLID
  5
45B
  8
VENUE
 62
     7
 10
11923.65488598239
 20
-9660.170790404984
 30
0.0
 11
12008.72888598239
 21
-9977.670790404984
 31
0.0
 12
11838.58088598239
 22
-9977.670790404984
 32
0.0
 13
11838.58088598239
 23
-9977.670790404984
 33
0.0
  0
LINE
  5
45C
  8
VENUE
  6
CONTINUOUS
 62
     7
 10
11923.65488598239
 20
-9660.170790404984
 30
0.0
 11
11923.65488598239
 21
-13544.17079040498
 31
0.0
  0
LINE
  5
45D
  8
VENUE
  6
CONTINUOUS
 62
     7
 10
11923.65488598239
 20
-13544.17079040498
 30
0.0
 11
9057.154885982389
 21
-13544.17079040498
 31
0.0
  0
LINE
  5
45E
  8
VENUE
  6
CONTINUOUS
 62
     7
 10
5107.404885982389
 20
-11894.17079040498
 30
0.0
 11
5107.404885982389
 21
-9878.049790404984
 31
0.0
  0
LINE
  5
45F
  8
VENUE
  6
CONTINUOUS
 62
     7
 10
5257.404885982389
 20
-11894.17079040498
 30
0.0
 11
5257.404885982389
 21
-9915.498790404985
 31
0.0
  0
LINE
  5
460
  8
VENUE
  6
CONTINUOUS
 62
     7
 10
5182.404885982389
 20
-11894.17079040498
 30
0.0
 11
5182.404885982389
 21
-9896.773790404979
 31
0.0
  0
ARC
  5
461
  8
VENUE
  6
CONTINUOUS
 62
     7
 10
5557.404885982389
 20
-11894.17079040498
 30
0.0
 40
450.0
 50
180.0
 51
359.9994910000003
  0
ARC
  5
462
  8
VENUE
  6
CONTINUOUS
 62
     7
 10
5557.404885982389
 20
-11894.17079040498
 30
0.0
 40
375.0
 50
180.0
 51
359.9995419999999
  0
ARC
  5
463
  8
VENUE
  6
CONTINUOUS
 62
     7
 10
5557.404885982389
 20
-11894.17079040498
 30
0.0
 40
300.0
 50
180.0
 51
359.9994270000004
  0
LINE
  5
464
  8
VENUE
  6
CONTINUOUS
 62
     7
 10
6007.404885982389
 20
-11544.17079040498
 30
0.0
 11
7973.904885982389
 21
-11544.17079040498
 31
0.0
  0
LINE
  5
465
  8
VENUE
  6
CONTINUOUS
 62
     7
 10
5107.404885982389
 20
-11544.17079040498
 30
0.0
 11
3140.904885982389
 21
-11544.17079040498
 31
0.0
  0
LINE
  5
466
  8
VENUE
  6
CONTINUOUS
 62
     7
 10
6007.404885982389
 20
-11244.17079040498
 30
0.0
 11
7973.904885982389
 21
-11244.17079040498
 31
0.0
  0
LINE
  5
467
  8
VENUE
  6
CONTINUOUS
 62
     7
 10
6007.404885982389
 20
-10944.17079040498
 30
0.0
 11
7973.904885982389
 21
-10944.17079040498
 31
0.0
  0
LINE
  5
468
  8
VENUE
  6
CONTINUOUS
 62
     7
 10
6007.404885982389
 20
-10644.17079040498
 30
0.0
 11
7973.904885982389
 21
-10644.17079040498
 31
0.0
  0
LINE
  5
469
  8
VENUE
  6
CONTINUOUS
 62
     7
 10
6007.404885982389
 20
-10344.17079040498
 30
0.0
 11
7973.904885982389
 21
-10344.17079040498
 31
0.0
  0
LINE
  5
46A
  8
VENUE
  6
CONTINUOUS
 62
     7
 10
6007.404885982389
 20
-10044.17079040498
 30
0.0
 11
7973.904885982389
 21
-10044.17079040498
 31
0.0
  0
LINE
  5
46B
  8
VENUE
  6
CONTINUOUS
 62
     7
 10
6007.404885982389
 20
-9744.170790404984
 30
0.0
 11
7973.904885982389
 21
-9744.170790404984
 31
0.0
  0
LINE
  5
46C
  8
VENUE
  6
CONTINUOUS
 62
     7
 10
6007.404885982389
 20
-9444.170790404984
 30
0.0
 11
7973.904885982389
 21
-9444.170790404984
 31
0.0
  0
LINE
  5
46D
  8
VENUE
  6
CONTINUOUS
 62
     7
 10
6007.404885982389
 20
-9144.170790404984
 30
0.0
 11
7973.904885982389
 21
-9144.170790404984
 31
0.0
  0
LINE
  5
46E
  8
VENUE
  6
CONTINUOUS
 62
     7
 10
6007.404885982389
 20
-8844.170790404984
 30
0.0
 11
7973.904885982389
 21
-8844.170790404984
 31
0.0
  0
LINE
  5
46F
  8
VENUE
  6
CONTINUOUS
 62
     7
 10
6007.404885982389
 20
-8544.170790404984
 30
0.0
 11
7973.904885982389
 21
-8544.170790404984
 31
0.0
  0
LINE
  5
470
  8
VENUE
  6
CONTINUOUS
 62
     7
 10
5962.369885982389
 20
-8244.170790404984
 30
0.0
 11
7973.904885982389
 21
-8244.170790404984
 31
0.0
  0
LINE
  5
471
  8
VENUE
  6
CONTINUOUS
 62
     7
 10
5776.325885982389
 20
-7944.170790404984
 30
0.0
 11
7973.904885982389
 21
-7944.170790404984
 31
0.0
  0
LINE
  5
472
  8
VENUE
  6
CONTINUOUS
 62
     7
 10
5107.404885982389
 20
-11244.17079040498
 30
0.0
 11
3140.904885982389
 21
-11244.17079040498
 31
0.0
  0
LINE
  5
473
  8
VENUE
  6
CONTINUOUS
 62
     7
 10
5107.404885982389
 20
-10944.17079040498
 30
0.0
 11
3140.904885982389
 21
-10944.17079040498
 31
0.0
  0
LINE
  5
474
  8
VENUE
  6
CONTINUOUS
 62
     7
 10
5107.404885982389
 20
-10644.17079040498
 30
0.0
 11
3140.904885982389
 21
-10644.17079040498
 31
0.0
  0
LINE
  5
475
  8
VENUE
  6
CONTINUOUS
 62
     7
 10
5107.404885982389
 20
-10344.17079040498
 30
0.0
 11
3140.904885982389
 21
-10344.17079040498
 31
0.0
  0
LINE
  5
476
  8
VENUE
  6
CONTINUOUS
 62
     7
 10
5107.404885982389
 20
-10044.17079040498
 30
0.0
 11
3140.904885982389
 21
-10044.17079040498
 31
0.0
  0
LINE
  5
477
  8
VENUE
  6
CONTINUOUS
 62
     7
 10
4571.16288598239
 20
-9744.170790404984
 30
0.0
 11
3140.904885982389
 21
-9744.170790404984
 31
0.0
  0
LINE
  5
478
  8
VENUE
  6
CONTINUOUS
 62
     7
 10
3140.904885982389
 20
-9387.090790404982
 30
0.0
 11
5257.404885982389
 21
-9915.498790404985
 31
0.0
  0
POLYLINE
  5
479
  8
VENUE
  6
CONTINUOUS
 62
     7
 66
     1
 10
0.0
 20
0.0
 30
0.0
 70
   128
  0
VERTEX
  5
6EA
  8
VENUE
  6
CONTINUOUS
 62
     7
 10
5562.904885982389
 20
-8544.170790404984
 30
0.0
  0
VERTEX
  5
6EB
  8
VENUE
  6
CONTINUOUS
 62
     7
 10
6007.404885982389
 20
-8544.170790404984
 30
0.0
  0
VERTEX
  5
6EC
  8
VENUE
  6
CONTINUOUS
 62
     7
 10
6006.473885982388
 20
-8498.735790404979
 30
0.0
  0
VERTEX
  5
6ED
  8
VENUE
  6
CONTINUOUS
 62
     7
 10
6003.682885982389
 20
-8454.066790404984
 30
0.0
  0
VERTEX
  5
6EE
  8
VENUE
  6
CONTINUOUS
 62
     7
 10
5999.029885982389
 20
-8410.165790404979
 30
0.0
  0
VERTEX
  5
6EF
  8
VENUE
  6
CONTINUOUS
 62
     7
 10
5992.516885982388
 20
-8367.03179040498
 30
0.0
  0
VERTEX
  5
6F0
  8
VENUE
  6
CONTINUOUS
 62
     7
 10
5984.141885982388
 20
-8324.665790404979
 30
0.0
  0
VERTEX
  5
6F1
  8
VENUE
  6
CONTINUOUS
 62
     7
 10
5973.906885982389
 20
-8283.066790404984
 30
0.0
  0
VERTEX
  5
6F2
  8
VENUE
  6
CONTINUOUS
 62
     7
 10
5961.809885982389
 20
-8242.235790404979
 30
0.0
  0
VERTEX
  5
6F3
  8
VENUE
  6
CONTINUOUS
 62
     7
 10
5947.852885982389
 20
-8202.170790404984
 30
0.0
  0
VERTEX
  5
6F4
  8
VENUE
  6
CONTINUOUS
 62
     7
 10
5932.282885982389
 20
-8163.538790404978
 30
0.0
  0
VERTEX
  5
6F5
  8
VENUE
  6
CONTINUOUS
 62
     7
 10
5915.351885982389
 20
-8127.002790404978
 30
0.0
  0
VERTEX
  5
6F6
  8
VENUE
  6
CONTINUOUS
 62
     7
 10
5897.056885982389
 20
-8092.56379040498
 30
0.0
  0
VERTEX
  5
6F7
  8
VENUE
  6
CONTINUOUS
 62
     7
 10
5877.401885982388
 20
-8060.219790404983
 30
0.0
  0
VERTEX
  5
6F8
  8
VENUE
  6
CONTINUOUS
 62
     7
 10
5856.382885982388
 20
-8029.973790404983
 30
0.0
  0
VERTEX
  5
6F9
  8
VENUE
  6
CONTINUOUS
 62
     7
 10
5834.002885982389
 20
-8001.822790404978
 30
0.0
  0
VERTEX
  5
6FA
  8
VENUE
  6
CONTINUOUS
 62
     7
 10
5810.259885982388
 20
-7975.768790404982
 30
0.0
  0
VERTEX
  5
6FB
  8
VENUE
  6
CONTINUOUS
 62
     7
 10
5785.154885982389
 20
-7951.809790404979
 30
0.0
  0
VERTEX
  5
6FC
  8
VENUE
  6
CONTINUOUS
 62
     7
 10
5759.117885982389
 20
-7930.33279040498
 30
0.0
  0
VERTEX
  5
6FD
  8
VENUE
  6
CONTINUOUS
 62
     7
 10
5732.583885982389
 20
-7911.718790404979
 30
0.0
  0
VERTEX
  5
6FE
  8
VENUE
  6
CONTINUOUS
 62
     7
 10
5705.549885982389
 20
-7895.968790404979
 30
0.0
  0
VERTEX
  5
6FF
  8
VENUE
  6
CONTINUOUS
 62
     7
 10
5678.018885982388
 20
-7883.08079040498
 30
0.0
  0
VERTEX
  5
700
  8
VENUE
  6
CONTINUOUS
 62
     7
 10
5649.987885982389
 20
-7873.058790404983
 30
0.0
  0
VERTEX
  5
701
  8
VENUE
  6
CONTINUOUS
 62
     7
 10
5621.458885982389
 20
-7865.898790404979
 30
0.0
  0
VERTEX
  5
702
  8
VENUE
  6
CONTINUOUS
 62
     7
 10
5592.430885982389
 20
-7861.602790404984
 30
0.0
  0
VERTEX
  5
703
  8
VENUE
  6
CONTINUOUS
 62
     7
 10
5562.904885982389
 20
-7860.170790404984
 30
0.0
  0
SEQEND
  5
799
  8
VENUE
  6
CONTINUOUS
 62
     7
  0
POLYLINE
  5
47A
  8
VENUE
  6
CONTINUOUS
 62
     7
 66
     1
 10
0.0
 20
0.0
 30
0.0
 70
   128
  0
VERTEX
  5
704
  8
VENUE
  6
CONTINUOUS
 62
     7
 10
5562.904885982389
 20
-8544.170790404984
 30
0.0
  0
VERTEX
  5
705
  8
VENUE
  6
CONTINUOUS
 62
     7
 10
5932.404885982389
 20
-8544.170790404984
 30
0.0
  0
VERTEX
  5
706
  8
VENUE
  6
CONTINUOUS
 62
     7
 10
5931.630885982389
 20
-8504.049790404984
 30
0.0
  0
VERTEX
  5
707
  8
VENUE
  6
CONTINUOUS
 62
     7
 10
5929.31088598239
 20
-8464.605790404981
 30
0.0
  0
VERTEX
  5
708
  8
VENUE
  6
CONTINUOUS
 62
     7
 10
5925.442885982389
 20
-8425.838790404981
 30
0.0
  0
VERTEX
  5
709
  8
VENUE
  6
CONTINUOUS
 62
     7
 10
5920.028885982389
 20
-8387.749790404981
 30
0.0
  0
VERTEX
  5
70A
  8
VENUE
  6
CONTINUOUS
 62
     7
 10
5913.066885982389
 20
-8350.338790404981
 30
0.0
  0
VERTEX
  5
70B
  8
VENUE
  6
CONTINUOUS
 62
     7
 10
5904.558885982389
 20
-8313.605790404981
 30
0.0
  0
VERTEX
  5
70C
  8
VENUE
  6
CONTINUOUS
 62
     7
 10
5894.502885982389
 20
-8277.549790404984
 30
0.0
  0
VERTEX
  5
70D
  8
VENUE
  6
CONTINUOUS
 62
     7
 10
5882.900885982388
 20
-8242.170790404984
 30
0.0
  0
VERTEX
  5
70E
  8
VENUE
  6
CONTINUOUS
 62
     7
 10
5869.957885982389
 20
-8208.057790404979
 30
0.0
  0
VERTEX
  5
70F
  8
VENUE
  6
CONTINUOUS
 62
     7
 10
5855.883885982388
 20
-8175.79479040498
 30
0.0
  0
VERTEX
  5
710
  8
VENUE
  6
CONTINUOUS
 62
     7
 10
5840.675885982389
 20
-8145.382790404983
 30
0.0
  0
VERTEX
  5
711
  8
VENUE
  6
CONTINUOUS
 62
     7
 10
5824.33688598239
 20
-8116.821790404982
 30
0.0
  0
VERTEX
  5
712
  8
VENUE
  6
CONTINUOUS
 62
     7
 10
5806.86388598239
 20
-8090.112790404979
 30
0.0
  0
VERTEX
  5
713
  8
VENUE
  6
CONTINUOUS
 62
     7
 10
5788.259885982388
 20
-8065.254790404979
 30
0.0
  0
VERTEX
  5
714
  8
VENUE
  6
CONTINUOUS
 62
     7
 10
5768.522885982389
 20
-8042.247790404981
 30
0.0
  0
VERTEX
  5
715
  8
VENUE
  6
CONTINUOUS
 62
     7
 10
5747.654885982389
 20
-8021.091790404978
 30
0.0
  0
VERTEX
  5
716
  8
VENUE
  6
CONTINUOUS
 62
     7
 10
5726.010885982389
 20
-8002.126790404982
 30
0.0
  0
VERTEX
  5
717
  8
VENUE
  6
CONTINUOUS
 62
     7
 10
5703.95388598239
 20
-7985.689790404984
 30
0.0
  0
VERTEX
  5
718
  8
VENUE
  6
CONTINUOUS
 62
     7
 10
5681.481885982388
 20
-7971.781790404981
 30
0.0
  0
VERTEX
  5
719
  8
VENUE
  6
CONTINUOUS
 62
     7
 10
5658.59588598239
 20
-7960.401790404983
 30
0.0
  0
VERTEX
  5
71A
  8
VENUE
  6
CONTINUOUS
 62
     7
 10
5635.293885982388
 20
-7951.551790404985
 30
0.0
  0
VERTEX
  5
71B
  8
VENUE
  6
CONTINUOUS
 62
     7
 10
5611.57888598239
 20
-7945.228790404981
 30
0.0
  0
VERTEX
  5
71C
  8
VENUE
  6
CONTINUOUS
 62
     7
 10
5587.448885982389
 20
-7941.435790404983
 30
0.0
  0
VERTEX
  5
71D
  8
VENUE
  6
CONTINUOUS
 62
     7
 10
5562.904885982389
 20
-7940.170790404984
 30
0.0
  0
SEQEND
  5
79A
  8
VENUE
  6
CONTINUOUS
 62
     7
  0
POLYLINE
  5
47B
  8
VENUE
  6
CONTINUOUS
 62
     7
 66
     1
 10
0.0
 20
0.0
 30
0.0
 70
   128
  0
VERTEX
  5
71E
  8
VENUE
  6
CONTINUOUS
 62
     7
 10
5557.404885982389
 20
-8544.170790404984
 30
0.0
  0
VERTEX
  5
71F
  8
VENUE
  6
CONTINUOUS
 62
     7
 10
5857.404885982389
 20
-8544.170790404984
 30
0.0
  0
VERTEX
  5
720
  8
VENUE
  6
CONTINUOUS
 62
     7
 10
5856.776885982388
 20
-8508.699790404979
 30
0.0
  0
VERTEX
  5
721
  8
VENUE
  6
CONTINUOUS
 62
     7
 10
5854.892885982388
 20
-8473.826790404979
 30
0.0
  0
VERTEX
  5
722
  8
VENUE
  6
CONTINUOUS
 62
     7
 10
5851.752885982389
 20
-8439.553790404985
 30
0.0
  0
VERTEX
  5
723
  8
VENUE
  6
CONTINUOUS
 62
     7
 10
5847.356885982388
 20
-8405.878790404982
 30
0.0
  0
VERTEX
  5
724
  8
VENUE
  6
CONTINUOUS
 62
     7
 10
5841.704885982388
 20
-8372.803790404985
 30
0.0
  0
VERTEX
  5
725
  8
VENUE
  6
CONTINUOUS
 62
     7
 10
5834.796885982389
 20
-8340.326790404994
 30
0.0
  0
VERTEX
  5
726
  8
VENUE
  6
CONTINUOUS
 62
     7
 10
5826.632885982388
 20
-8308.449790404979
 30
0.0
  0
VERTEX
  5
727
  8
VENUE
  6
CONTINUOUS
 62
     7
 10
5817.21288598239
 20
-8277.170790404984
 30
0.0
  0
VERTEX
  5
728
  8
VENUE
  6
CONTINUOUS
 62
     7
 10
5806.704885982388
 20
-8247.01079040498
 30
0.0
  0
VERTEX
  5
729
  8
VENUE
  6
CONTINUOUS
 62
     7
 10
5795.277885982388
 20
-8218.486790404982
 30
0.0
  0
VERTEX
  5
72A
  8
VENUE
  6
CONTINUOUS
 62
     7
 10
5782.930885982389
 20
-8191.59979040498
 30
0.0
  0
VERTEX
  5
72B
  8
VENUE
  6
CONTINUOUS
 62
     7
 10
5769.664885982389
 20
-8166.348790404983
 30
0.0
  0
VERTEX
  5
72C
  8
VENUE
  6
CONTINUOUS
 62
     7
 10
5755.478885982389
 20
-8142.735790404979
 30
0.0
  0
VERTEX
  5
72D
  8
VENUE
  6
CONTINUOUS
 62
     7
 10
5740.373885982388
 20
-8120.757790404983
 30
0.0
  0
VERTEX
  5
72E
  8
VENUE
  6
CONTINUOUS
 62
     7
 10
5724.348885982388
 20
-8100.417790404979
 30
0.0
  0
VERTEX
  5
72F
  8
VENUE
  6
CONTINUOUS
 62
     7
 10
5707.404885982389
 20
-8081.712790404985
 30
0.0
  0
VERTEX
  5
730
  8
VENUE
  6
CONTINUOUS
 62
     7
 10
5689.831885982388
 20
-8064.945790404985
 30
0.0
  0
VERTEX
  5
731
  8
VENUE
  6
CONTINUOUS
 62
     7
 10
5671.923885982389
 20
-8050.413790404978
 30
0.0
  0
VERTEX
  5
732
  8
VENUE
  6
CONTINUOUS
 62
     7
 10
5653.677885982388
 20
-8038.117790404984
 30
0.0
  0
VERTEX
  5
733
  8
VENUE
  6
CONTINUOUS
 62
     7
 10
5635.096885982388
 20
-8028.056790404982
 30
0.0
  0
VERTEX
  5
734
  8
VENUE
  6
CONTINUOUS
 62
     7
 10
5616.177885982388
 20
-8020.232790404982
 30
0.0
  0
VERTEX
  5
735
  8
VENUE
  6
CONTINUOUS
 62
     7
 10
5596.923885982389
 20
-8014.642790404985
 30
0.0
  0
VERTEX
  5
736
  8
VENUE
  6
CONTINUOUS
 62
     7
 10
5577.331885982388
 20
-8011.288790404978
 30
0.0
  0
VERTEX
  5
737
  8
VENUE
  6
CONTINUOUS
 62
     7
 10
5557.404885982389
 20
-8010.170790404984
 30
0.0
  0
SEQEND
  5
79B
  8
VENUE
  6
CONTINUOUS
 62
     7
  0
LINE
  5
47C
  8
VENUE
  6
CONTINUOUS
 62
     7
 10
5562.904885982389
 20
-7860.170790404984
 30
0.0
 11
5557.404885982389
 21
-8010.170790404984
 31
0.0
  0
CIRCLE
  5
47D
  8
VENUE
 62
     7
 10
6990.654885982389
 20
-7944.170790404984
 30
0.0
 40
105.8070000000007
  0
LINE
  5
47E
  8
VENUE
  6
CONTINUOUS
 62
     7
 10
6990.654885982389
 20
-7944.170790404984
 30
0.0
 11
6990.654885982389
 21
-13544.17079040498
 31
0.0
  0
SOLID
  5
47F
  8
VENUE
 62
     7
 10
4124.154885982389
 20
-9660.170790404984
 30
0.0
 11
4209.228885982389
 21
-9977.670790404984
 31
0.0
 12
4039.080885982388
 22
-9977.670790404984
 32
0.0
 13
4039.080885982388
 23
-9977.670790404984
 33
0.0
  0
LINE
  5
480
  8
VENUE
  6
CONTINUOUS
 62
     7
 10
4124.154885982389
 20
-9660.170790404984
 30
0.0
 11
4124.154885982389
 21
-13544.17079040498
 31
0.0
  0
LINE
  5
481
  8
VENUE
  6
CONTINUOUS
 62
     7
 10
4124.154885982389
 20
-13544.17079040498
 30
0.0
 11
6990.654885982389
 21
-13544.17079040498
 31
0.0
  0
LINE
  5
482
  8
VENUE
  6
CONTINUOUS
 62
     7
 10
6007.404885982389
 20
-11980.17079040498
 30
0.0
 11
6007.404885982389
 21
-8544.170790404984
 31
0.0
  0
LINE
  5
483
  8
VENUE
  6
CONTINUOUS
 62
     7
 10
5857.404885982389
 20
-11894.17579040498
 30
0.0
 11
5857.404885982389
 21
-8544.170790404984
 31
0.0
  0
LINE
  5
484
  8
VENUE
  6
CONTINUOUS
 62
     7
 10
5932.404885982389
 20
-11894.17079040498
 30
0.0
 11
5932.404885982389
 21
-8544.170790404984
 31
0.0
  0
POLYLINE
  5
485
  8
VENUE
  6
CONTINUOUS
 62
     7
 66
     1
 10
0.0
 20
0.0
 30
0.0
 70
   129
  0
VERTEX
  5
738
  8
VENUE
  6
CONTINUOUS
 62
     7
 10
8506.904885982389
 20
-1961.170790404982
 30
0.0
  0
VERTEX
  5
739
  8
VENUE
  6
CONTINUOUS
 62
     7
 10
9406.904885982389
 20
-1961.170790404982
 30
0.0
  0
VERTEX
  5
73A
  8
VENUE
  6
CONTINUOUS
 62
     7
 10
9406.904885982389
 20
-2861.170790404982
 30
0.0
  0
VERTEX
  5
73B
  8
VENUE
  6
CONTINUOUS
 62
     7
 10
8506.904885982389
 20
-2861.170790404982
 30
0.0
  0
SEQEND
  5
79C
  8
VENUE
  6
CONTINUOUS
 62
     7
  0
POLYLINE
  5
486
  8
VENUE
  6
CONTINUOUS
 62
     7
 66
     1
 10
0.0
 20
0.0
 30
0.0
 70
   129
  0
VERTEX
  5
73C
  8
VENUE
  6
CONTINUOUS
 62
     7
 10
8506.904885982389
 20
5738.829209595018
 30
0.0
  0
VERTEX
  5
73D
  8
VENUE
  6
CONTINUOUS
 62
     7
 10
9406.904885982389
 20
5738.829209595018
 30
0.0
  0
VERTEX
  5
73E
  8
VENUE
  6
CONTINUOUS
 62
     7
 10
9406.904885982389
 20
4838.829209595018
 30
0.0
  0
VERTEX
  5
73F
  8
VENUE
  6
CONTINUOUS
 62
     7
 10
8506.904885982389
 20
4838.829209595018
 30
0.0
  0
SEQEND
  5
79D
  8
VENUE
  6
CONTINUOUS
 62
     7
  0
POLYLINE
  5
487
  8
VENUE
  6
CONTINUOUS
 62
     7
 66
     1
 10
0.0
 20
0.0
 30
0.0
 70
   129
  0
VERTEX
  5
740
  8
VENUE
  6
CONTINUOUS
 62
     7
 10
8506.904885982389
 20
10838.82920959502
 30
0.0
  0
VERTEX
  5
741
  8
VENUE
  6
CONTINUOUS
 62
     7
 10
9406.904885982389
 20
10838.82920959502
 30
0.0
  0
VERTEX
  5
742
  8
VENUE
  6
CONTINUOUS
 62
     7
 10
9406.904885982389
 20
9938.829209595018
 30
0.0
  0
VERTEX
  5
743
  8
VENUE
  6
CONTINUOUS
 62
     7
 10
8506.904885982389
 20
9938.829209595018
 30
0.0
  0
SEQEND
  5
79E
  8
VENUE
  6
CONTINUOUS
 62
     7
  0
LINE
  5
488
  8
0
  6
CONTINUOUS
 10
33906.90488598239
 20
-2494.170790404982
 30
0.0
 11
30106.90488598239
 21
-2494.170790404982
 31
0.0
  0
LINE
  5
489
  8
0
  6
CONTINUOUS
 10
30106.90488598239
 20
-2094.170790404982
 30
0.0
 11
30106.90488598239
 21
-1594.170790404982
 31
0.0
  0
LINE
  5
48A
  8
VENUE
  6
CONTINUOUS
 62
     7
 10
19906.90488598239
 20
-2794.170790404982
 30
0.0
 11
19906.90488598239
 21
-9194.170790404984
 31
0.0
  0
LINE
  5
48B
  8
VENUE
  6
CONTINUOUS
 62
     7
 10
32824.90488598239
 20
1005.829209595018
 30
0.0
 11
32824.90488598239
 21
5505.829209595018
 31
0.0
  0
LINE
  5
48C
  8
0
  6
CONTINUOUS
 10
32824.90488598239
 20
1005.829209595018
 30
0.0
 11
35924.90488598239
 21
1005.829209595018
 31
0.0
  0
LINE
  5
48D
  8
VENUE
  6
CONTINUOUS
 62
     7
 10
33724.90488598239
 20
21705.82920959502
 30
0.0
 11
38924.90488598239
 21
21705.82920959502
 31
0.0
  0
LINE
  5
48E
  8
VENUE
  6
CONTINUOUS
 62
     7
 10
32924.90488598239
 20
22005.82920959502
 30
0.0
 11
39524.90488598239
 21
22005.82920959502
 31
0.0
  0
LINE
  5
48F
  8
VENUE
  6
CONTINUOUS
 62
     7
 10
32924.90488598239
 20
21705.82920959502
 30
0.0
 11
32924.90488598239
 21
18705.82920959502
 31
0.0
  0
LINE
  5
490
  8
VENUE
  6
CONTINUOUS
 62
     7
 10
2248.904885982389
 20
16255.82920959502
 30
0.0
 11
14640.90488598239
 21
16255.82920959502
 31
0.0
  0
LINE
  5
491
  8
VENUE
  6
CONTINUOUS
 62
     7
 10
14640.90488598239
 20
16255.82920959502
 30
0.0
 11
14640.90488598239
 21
27994.93954152582
 31
0.0
  0
SOLID
  5
492
  8
VENUE
 62
     7
 10
32927.40488598239
 20
-1369.170790404982
 30
0.0
 11
33244.90488598239
 21
-1284.096790404981
 31
0.0
 12
33244.90488598239
 22
-1454.244790404982
 32
0.0
 13
33244.90488598239
 23
-1454.244790404982
 33
0.0
  0
LINE
  5
493
  8
VENUE
  6
CONTINUOUS
 62
     7
 10
16140.90488598239
 20
14168.82920959502
 30
0.0
 11
14940.90488598239
 21
14168.82920959502
 31
0.0
  0
LINE
  5
494
  8
VENUE
  6
CONTINUOUS
 62
     7
 10
14940.90488598239
 20
18255.82920959502
 30
0.0
 11
16240.90488598239
 21
18255.82920959502
 31
0.0
  0
LINE
  5
495
  8
VENUE
  6
CONTINUOUS
 62
     7
 10
16240.90488598239
 20
18255.82920959502
 30
0.0
 11
14940.90488598239
 21
18255.82920959502
 31
0.0
  0
LINE
  5
496
  8
VENUE
  6
CONTINUOUS
 62
     7
 10
16140.90488598239
 20
14168.82920959502
 30
0.0
 11
14940.90488598239
 21
14168.82920959502
 31
0.0
  0
LINE
  5
497
  8
VENUE
  6
CONTINUOUS
 62
     7
 10
16240.90488598239
 20
18255.82920959502
 30
0.0
 11
16240.90488598239
 21
16955.82920959502
 31
0.0
  0
LINE
  5
498
  8
VENUE
  6
CONTINUOUS
 62
     7
 10
16240.90488598239
 20
18255.82920959502
 30
0.0
 11
16240.90488598239
 21
16955.82920959502
 31
0.0
  0
LINE
  5
499
  8
VENUE
  6
CONTINUOUS
 62
     7
 10
16140.90488598239
 20
16955.82920959502
 30
0.0
 11
16140.90488598239
 21
14168.82920959502
 31
0.0
  0
LINE
  5
49A
  8
VENUE
  6
CONTINUOUS
 62
     7
 10
15940.90488598239
 20
14368.82920959502
 30
0.0
 11
15940.90488598239
 21
16955.82920959502
 31
0.0
  0
LINE
  5
49B
  8
VENUE
  6
CONTINUOUS
 62
     7
 10
15220.90488598239
 20
14368.82920959502
 30
0.0
 11
15940.90488598239
 21
14368.82920959502
 31
0.0
  0
LINE
  5
49C
  8
VENUE
  6
CONTINUOUS
 62
     7
 10
15940.90488598239
 20
14368.82920959502
 30
0.0
 11
15220.90488598239
 21
14368.82920959502
 31
0.0
  0
LINE
  5
49D
  8
VENUE
  6
CONTINUOUS
 62
     7
 10
15940.90488598239
 20
16955.82920959502
 30
0.0
 11
15220.90488598239
 21
16955.82920959502
 31
0.0
  0
LINE
  5
49E
  8
VENUE
  6
CONTINUOUS
 62
     7
 10
15940.90488598239
 20
16955.82920959502
 30
0.0
 11
15220.90488598239
 21
16955.82920959502
 31
0.0
  0
LINE
  5
49F
  8
VENUE
  6
CONTINUOUS
 62
     7
 10
16240.90488598239
 20
16955.82920959502
 30
0.0
 11
16140.90488598239
 21
16955.82920959502
 31
0.0
  0
LINE
  5
4A0
  8
VENUE
  6
CONTINUOUS
 62
     7
 10
16240.90488598239
 20
16955.82920959502
 30
0.0
 11
14940.90488598239
 21
16955.82920959502
 31
0.0
  0
LINE
  5
4A1
  8
VENUE
  6
CONTINUOUS
 62
     7
 10
15220.90488598239
 20
16955.82920959502
 30
0.0
 11
15220.90488598239
 21
14368.82920959502
 31
0.0
  0
LINE
  5
4A2
  8
VENUE
  6
CONTINUOUS
 62
     7
 10
15220.90488598239
 20
16955.82920959502
 30
0.0
 11
15220.90488598239
 21
14368.82920959502
 31
0.0
  0
LINE
  5
4A3
  8
VENUE
  6
CONTINUOUS
 62
     7
 10
17540.90488598239
 20
26768.82920959502
 30
0.0
 11
17540.90488598239
 21
26668.82920959502
 31
0.0
  0
LINE
  5
4A4
  8
VENUE
  6
CONTINUOUS
 62
     7
 10
27640.90488598239
 20
26768.82920959502
 30
0.0
 11
27640.90488598239
 21
26668.82920959502
 31
0.0
  0
LINE
  5
4A5
  8
VENUE
  6
CONTINUOUS
 62
     7
 10
27640.90488598239
 20
26768.82920959502
 30
0.0
 11
17540.90488598239
 21
26768.82920959502
 31
0.0
  0
LINE
  5
4A6
  8
VENUE
  6
CONTINUOUS
 62
     7
 10
27640.90488598239
 20
26668.82920959502
 30
0.0
 11
17540.90488598239
 21
26668.82920959502
 31
0.0
  0
LINE
  5
4A7
  8
VENUE
  6
CONTINUOUS
 62
     7
 10
18040.90488598239
 20
26468.82920959501
 30
0.0
 11
18040.90488598239
 21
26368.82920959502
 31
0.0
  0
LINE
  5
4A8
  8
VENUE
  6
CONTINUOUS
 62
     7
 10
27140.90488598239
 20
26468.82920959502
 30
0.0
 11
18040.90488598239
 21
26468.82920959502
 31
0.0
  0
LINE
  5
4A9
  8
VENUE
  6
CONTINUOUS
 62
     7
 10
27140.90488598239
 20
26468.82920959502
 30
0.0
 11
27140.90488598239
 21
26368.82920959502
 31
0.0
  0
LINE
  5
4AA
  8
VENUE
  6
CONTINUOUS
 62
     7
 10
27140.90488598239
 20
26368.82920959502
 30
0.0
 11
18040.90488598239
 21
26368.82920959502
 31
0.0
  0
LINE
  5
4AB
  8
VENUE
  6
CONTINUOUS
 62
     7
 10
16240.90488598239
 20
26218.82920959502
 30
0.0
 11
16240.90488598239
 21
26118.82920959502
 31
0.0
  0
LINE
  5
4AC
  8
VENUE
  6
CONTINUOUS
 62
     7
 10
28740.90488598239
 20
26218.82920959502
 30
0.0
 11
28740.90488598239
 21
26118.82920959502
 31
0.0
  0
LINE
  5
4AD
  8
VENUE
  6
CONTINUOUS
 62
     7
 10
28740.90488598239
 20
26218.82920959502
 30
0.0
 11
16240.90488598239
 21
26218.82920959502
 31
0.0
  0
LINE
  5
4AE
  8
VENUE
  6
CONTINUOUS
 62
     7
 10
28740.90488598239
 20
26118.82920959502
 30
0.0
 11
16240.90488598239
 21
26118.82920959502
 31
0.0
  0
LINE
  5
4AF
  8
0
  6
ラインタイプ-1
 62
   161
 10
24640.90488598239
 20
4255.829209595018
 30
0.0
 11
26524.90488598239
 21
4255.829209595018
 31
0.0
  0
LINE
  5
4B0
  8
0
  6
ラインタイプ-1
 10
15406.90488598239
 20
2455.829209595018
 30
0.0
 11
15406.90488598239
 21
655.8292095950183
 31
0.0
  0
ARC
  5
4B1
  8
VENUE
  6
ラインタイプ-1
 62
   161
 10
18840.90488598239
 20
4055.829209595018
 30
0.0
 40
900.0
 50
270.0
 51
0.0
  0
ARC
  5
4B2
  8
VENUE
  6
ラインタイプ-1
 62
   161
 10
20640.90488598239
 20
4055.829209595018
 30
0.0
 40
900.0
 50
180.0
 51
270.0
  0
ARC
  5
4B3
  8
VENUE
  6
ラインタイプ-1
 62
   161
 10
26524.90488598239
 20
4055.829209595018
 30
0.0
 40
900.0
 50
180.0
 51
270.0
  0
ARC
  5
4B4
  8
VENUE
  6
ラインタイプ-1
 62
   161
 10
24724.90488598239
 20
4055.829209595018
 30
0.0
 40
900.0
 50
270.0
 51
0.0
  0
LINE
  5
4B5
  8
VENUE
  6
ラインタイプ-5
 62
     7
 10
29740.90488598239
 20
905.8292095950183
 30
0.0
 11
28990.90488598239
 21
905.8292095950183
 31
0.0
  0
TEXT
  5
4B6
  8
VENUE
  6
CONTINUOUS
 62
     7
 10
13781.2512006764
 20
-5965.200695155842
 30
0.0
 40
285.8575701156615
  1
ELV
  7
OSAKA
  0
LINE
  5
4B7
  8
VENUE
  6
CONTINUOUS
 62
     7
 10
248.9048859823888
 20
-361.1707904049817
 30
0.0
 11
448.9048859823888
 21
-361.1707904049817
 31
0.0
  0
LINE
  5
4B8
  8
VENUE
  6
CONTINUOUS
 62
     7
 10
448.9048859823888
 20
-361.1707904049817
 30
0.0
 11
448.9048859823888
 21
-1961.170790404982
 31
0.0
  0
LINE
  5
4B9
  8
VENUE
  6
CONTINUOUS
 62
     7
 10
448.9048859823888
 20
-1961.170790404982
 30
0.0
 11
648.9048859823888
 21
-1961.170790404982
 31
0.0
  0
LINE
  5
4BA
  8
VENUE
  6
CONTINUOUS
 62
     7
 10
648.9048859823888
 20
-1961.170790404982
 30
0.0
 11
648.9048859823888
 21
-2161.170790404982
 31
0.0
  0
LINE
  5
4BB
  8
VENUE
  6
CONTINUOUS
 62
     7
 10
648.9048859823888
 20
-2161.170790404982
 30
0.0
 11
448.9048859823888
 21
-2161.170790404982
 31
0.0
  0
LINE
  5
4BC
  8
VENUE
  6
CONTINUOUS
 62
     7
 10
448.9048859823888
 20
-2161.170790404982
 30
0.0
 11
448.9048859823888
 21
-2261.170790404982
 31
0.0
  0
LINE
  5
4BD
  8
VENUE
  6
CONTINUOUS
 62
     7
 10
248.9048859823888
 20
-2261.170790404982
 30
0.0
 11
248.9048859823888
 21
-361.1707904049817
 31
0.0
  0
LINE
  5
4BE
  8
VENUE
  6
ラインタイプ-5
 62
     7
 10
28990.90488598239
 20
-1594.170790404982
 30
0.0
 11
28990.90488598239
 21
905.8292095950183
 31
0.0
  0
LINE
  5
4BF
  8
VENUE
  6
ラインタイプ-5
 62
     7
 10
17206.90488598239
 20
-1844.170790404982
 30
0.0
 11
16006.90488598239
 21
-1844.170790404982
 31
0.0
  0
LINE
  5
4C0
  8
VENUE
  6
ラインタイプ-5
 62
     7
 10
17206.90488598239
 20
-2444.170790404982
 30
0.0
 11
17206.90488598239
 21
-1844.170790404982
 31
0.0
  0
LINE
  5
4C1
  8
0
  6
CONTINUOUS
 10
17754.86087930609
 20
-1844.170790404953
 30
0.0
 11
17754.86087930609
 21
-2444.170790404982
 31
0.0
  0
SOLID
  5
4C2
  8
0
  6
CONTINUOUS
 62
     7
 10
17796.52754597276
 20
-2094.170790404982
 30
0.0
 11
17713.19421263942
 21
-2094.170790404982
 31
0.0
 12
17754.86087930608
 22
-1844.170790404982
 32
0.0
 13
17754.86087930608
 23
-1844.170790404982
 33
0.0
  0
SOLID
  5
4C3
  8
0
  6
CONTINUOUS
 62
     7
 10
17713.19421263938
 20
-2194.170790404913
 30
0.0
 11
17796.52754597271
 21
-2194.170790404902
 31
0.0
 12
17754.86087930608
 22
-2444.170790404902
 32
0.0
 13
17754.86087930608
 23
-2444.170790404902
 33
0.0
  0
LINE
  5
4C4
  8
0
  6
CONTINUOUS
 10
16006.90488598239
 20
-1630.208879113472
 30
0.0
 11
16006.90488598239
 21
-944.6978872807322
 31
0.0
  0
LINE
  5
4C5
  8
0
  6
CONTINUOUS
 10
16256.90488598239
 20
-1044.697887280732
 30
0.0
 11
16956.90488598239
 21
-1044.697887280732
 31
0.0
  0
SOLID
  5
4C6
  8
0
  6
CONTINUOUS
 62
     7
 10
16256.90488598239
 20
-1003.031220614072
 30
0.0
 11
16256.90488598239
 21
-1086.364553947402
 31
0.0
 12
16006.90488598239
 22
-1044.697887280732
 32
0.0
 13
16006.90488598239
 23
-1044.697887280732
 33
0.0
  0
SOLID
  5
4C7
  8
0
  6
CONTINUOUS
 62
     7
 10
16956.90488598239
 20
-1003.031220614072
 30
0.0
 11
16956.90488598239
 21
-1086.364553947402
 31
0.0
 12
17206.90488598239
 22
-1044.697887280732
 32
0.0
 13
17206.90488598239
 23
-1044.697887280732
 33
0.0
  0
TEXT
  5
4C8
  8
0
  6
CONTINUOUS
 10
16178.1078615286
 20
-946.336994616868
 30
0.0
 40
257.2782146722714
  1
1200
  7
OSAKA
  0
LINE
  5
4C9
  8
0
  6
CONTINUOUS
 10
17510.75798242172
 20
-1844.170790404982
 30
0.0
 11
18047.80506703746
 21
-1844.170790404982
 31
0.0
  0
LINE
  5
4CA
  8
0
  6
CONTINUOUS
 10
17510.75798242172
 20
-2444.170790404982
 30
0.0
 11
18047.80506703746
 21
-2444.170790404982
 31
0.0
  0
TEXT
  5
4CB
  8
0
  6
CONTINUOUS
 10
18353.1311888634
 20
-2474.957066412189
 30
0.0
 40
257.2782146722714
  1
600
 50
90.0
  7
OSAKA
  0
LINE
  5
4CC
  8
0
  6
CONTINUOUS
 10
28990.90488598239
 20
1091.684759151209
 30
0.0
 11
28990.90488598239
 21
1758.206922176258
 31
0.0
  0
LINE
  5
4CD
  8
0
  6
CONTINUOUS
 10
29740.90488598239
 20
1091.684759151209
 30
0.0
 11
29740.90488598239
 21
1758.206922176258
 31
0.0
  0
LINE
  5
4CE
  8
0
  6
CONTINUOUS
 10
29240.90488598239
 20
1658.206922176258
 30
0.0
 11
29490.90488598239
 21
1658.206922176258
 31
0.0
  0
TEXT
  5
4CF
  8
0
  6
CONTINUOUS
 10
29035.11860997518
 20
1906.567814840122
 30
0.0
 40
257.2782146722714
  1
750
  7
OSAKA
  0
SOLID
  5
4D0
  8
0
  6
CONTINUOUS
 62
     7
 10
29240.90488598239
 20
1699.873588842918
 30
0.0
 11
29240.90488598239
 21
1616.540255509588
 31
0.0
 12
28990.90488598239
 22
1658.206922176258
 32
0.0
 13
28990.90488598239
 23
1658.206922176258
 33
0.0
  0
SOLID
  5
4D1
  8
0
  6
CONTINUOUS
 62
     7
 10
29490.90488598239
 20
1699.873588842918
 30
0.0
 11
29490.90488598239
 21
1616.540255509588
 31
0.0
 12
29740.90488598239
 22
1658.206922176258
 32
0.0
 13
29740.90488598239
 23
1658.206922176258
 33
0.0
  0
LINE
  5
4D2
  8
0
  6
CONTINUOUS
 10
28774.34654184517
 20
905.8292095950183
 30
0.0
 11
28455.08307492354
 21
905.8292095950183
 31
0.0
  0
LINE
  5
4D3
  8
0
  6
CONTINUOUS
 10
28774.34654184517
 20
-1594.170790404982
 30
0.0
 11
28455.08307492354
 21
-1594.170790404982
 31
0.0
  0
LINE
  5
4D4
  8
0
  6
CONTINUOUS
 10
28555.08307492354
 20
655.8292095950183
 30
0.0
 11
28555.08307492354
 21
-1344.170790404982
 31
0.0
  0
TEXT
  5
4D5
  8
0
  6
CONTINUOUS
 10
28456.72218225968
 20
-797.4705019704124
 30
0.0
 40
257.2782146722714
  1
2500
 50
90.0
  7
OSAKA
  0
SOLID
  5
4D6
  8
0
  6
CONTINUOUS
 62
     7
 10
28513.41640825688
 20
655.8292095950183
 30
0.0
 11
28596.74974159021
 21
655.8292095950183
 31
0.0
 12
28555.08307492354
 22
905.8292095950183
 32
0.0
 13
28555.08307492354
 23
905.8292095950183
 33
0.0
  0
SOLID
  5
4D7
  8
0
  6
CONTINUOUS
 62
     7
 10
28513.41640825688
 20
-1344.170790404982
 30
0.0
 11
28596.74974159021
 21
-1344.170790404982
 31
0.0
 12
28555.08307492354
 22
-1594.170790404982
 32
0.0
 13
28555.08307492354
 23
-1594.170790404982
 33
0.0
  0
TEXT
  5
4D8
  8
0
  6
CONTINUOUS
 62
     7
 10
-3050.0
 20
-2494.882850834151
 30
0.0
 40
676.9612630208333
  1
喫煙室
  7
ＭＳ_ゴシック
  0
INSERT
  5
4D9
  8
0
 62
     7
  2
*X32
 10
0.0
 20
0.0
 30
0.0
  0
LINE
  5
4DA
  8
VENUE
  6
CONTINUOUS
 62
     7
 10
33134.79667566239
 20
15895.3840570821
 30
0.0
 11
38934.79667566239
 21
15895.3840570821
 31
0.0
  0
LINE
  5
4DB
  8
VENUE
  6
CONTINUOUS
 62
     7
 10
38934.79667566239
 20
16995.3840570821
 30
0.0
 11
38484.79667566239
 21
16995.3840570821
 31
0.0
  0
LINE
  5
4DC
  8
VENUE
  6
CONTINUOUS
 62
     7
 10
38484.79667566239
 20
16995.3840570821
 30
0.0
 11
38484.79667566239
 21
18045.3840570821
 31
0.0
  0
LINE
  5
4DD
  8
VENUE
  6
CONTINUOUS
 62
     7
 10
33134.79667566239
 20
16095.3840570821
 30
0.0
 11
33134.79667566239
 21
15895.3840570821
 31
0.0
  0
LINE
  5
4DE
  8
VENUE
  6
CONTINUOUS
 62
     7
 10
33134.79667566239
 20
16095.3840570821
 30
0.0
 11
33134.79667566239
 21
16895.3840570821
 31
0.0
  0
LINE
  5
4DF
  8
VENUE
  6
CONTINUOUS
 62
     7
 10
38934.79667566239
 20
15895.3840570821
 30
0.0
 11
38934.79667566239
 21
16995.3840570821
 31
0.0
  0
LINE
  5
4E0
  8
0
  6
CONTINUOUS
 62
     7
 10
33638.9445160015
 20
17808.74751253952
 30
0.0
 11
33638.9445160015
 21
15895.3840570821
 31
0.0
  0
LINE
  5
4E1
  8
0
  6
CONTINUOUS
 62
     7
 10
37909.89178968
 20
17791.1688004366
 30
0.0
 11
38484.79667566239
 21
17791.1688004366
 31
0.0
  0
LINE
  5
4E2
  8
0
  6
CONTINUOUS
 62
     7
 10
37396.52833422257
 20
17730.33923236878
 30
0.0
 11
37971.43322020497
 21
17730.33923236878
 31
0.0
  0
POLYLINE
  5
4E3
  8
0
  6
CONTINUOUS
 62
     7
 66
     1
 10
0.0
 20
0.0
 30
0.0
 70
   128
  0
VERTEX
  5
747
  8
0
  6
CONTINUOUS
 62
     7
 10
38697.3442326712
 20
16451.73060906184
 30
0.0
  0
VERTEX
  5
748
  8
0
  6
CONTINUOUS
 62
     7
 10
38934.79667566239
 20
16439.55484748709
 30
0.0
  0
VERTEX
  5
749
  8
0
  6
CONTINUOUS
 62
     7
 10
38934.79667566239
 20
15895.3840570821
 30
0.0
  0
VERTEX
  5
74A
  8
0
  6
CONTINUOUS
 62
     7
 10
38459.89178968
 20
15895.3840570821
 30
0.0
  0
VERTEX
  5
74B
  8
0
  6
CONTINUOUS
 62
     7
 10
38459.89178968
 20
16439.55484748709
 30
0.0
  0
VERTEX
  5
74C
  8
0
  6
CONTINUOUS
 62
     7
 10
38697.3442326712
 20
16451.73060906184
 30
0.0
  0
SEQEND
  5
79F
  8
0
  6
CONTINUOUS
 62
     7
  0
LINE
  5
4E4
  8
0
  6
CONTINUOUS
 62
     7
 10
37399.04437766445
 20
17711.21398362273
 30
0.0
 11
37399.04437766445
 21
15895.3840570821
 31
0.0
  0
LINE
  5
4E5
  8
0
  6
ラインタイプ-10
 62
     7
 10
33134.79667566239
 20
17808.74751253952
 30
0.0
 11
34469.89178968
 21
17808.74751253952
 31
0.0
  0
LINE
  5
4E6
  8
0
  6
CONTINUOUS
 62
     7
 10
36249.89178968
 20
17784.57743908016
 30
0.0
 11
37409.89178968
 21
17784.57743908016
 31
0.0
  0
LINE
  5
4E7
  8
0
  6
CONTINUOUS
 62
     7
 10
34364.52557654558
 20
17771.21398362273
 30
0.0
 11
35215.47285022408
 21
17771.21398362273
 31
0.0
  0
LINE
  5
4E8
  8
0
  6
CONTINUOUS
 62
     7
 10
35089.89178968
 20
17749.55484748709
 30
0.0
 11
35969.89178968
 21
17749.55484748709
 31
0.0
  0
LINE
  5
4E9
  8
0
  6
CONTINUOUS
 62
     7
 10
35869.89178968
 20
17727.89571135144
 30
0.0
 11
36749.89178968
 21
17727.89571135144
 31
0.0
  0
LINE
  5
4EA
  8
0
  6
ラインタイプ-1
 62
     7
 10
3183.633885982388
 20
4938.829209595018
 30
0.0
 11
3183.633885982388
 21
5738.829209595018
 31
0.0
  0
LINE
  5
4EB
  8
0
  6
ラインタイプ-1
 62
     7
 10
3183.633885982388
 20
5738.829209595018
 30
0.0
 11
3183.633885982388
 21
4938.829209595018
 31
0.0
  0
LINE
  5
4EC
  8
0
  6
ラインタイプ-1
 62
     7
 10
3148.904885982389
 20
2938.829209595018
 30
0.0
 11
3148.904885982389
 21
2138.829209595018
 31
0.0
  0
INSERT
  5
4F1
  8
VENUE
 62
     7
  2
*X33
 10
0.0
 20
0.0
 30
0.0
  0
INSERT
  5
4F2
  8
0
 62
   253
  2
グループ
 10
19705.69196630416
 20
12269.95049671124
 30
0.0
  0
INSERT
  5
4F3
  8
0
 62
   253
  2
グループ-1
 10
19705.69196630416
 20
12269.95049671124
 30
0.0
  0
LINE
  5
4F4
  8
0
  6
CONTINUOUS
 62
     9
 10
22699.83491773793
 20
23828.3962486344
 30
0.0
 11
22699.83491773793
 21
25300.92902770436
 31
0.0
  0
LINE
  5
4F5
  8
0
  6
CONTINUOUS
 62
   253
 10
17924.38058299163
 20
23244.67700533426
 30
0.0
 11
20739.85623252019
 21
23244.67700533426
 31
0.0
  0
LINE
  5
4F6
  8
0
  6
CONTINUOUS
 62
   253
 10
20739.85623252019
 20
23244.67700533426
 30
0.0
 11
20739.85623252019
 21
20823.59505575211
 31
0.0
  0
LINE
  5
4F7
  8
0
  6
CONTINUOUS
 62
   253
 10
20739.85623252019
 20
20823.59505575211
 30
0.0
 11
17943.42547207377
 21
20823.59505575211
 31
0.0
  0
LINE
  5
4F8
  8
0
  6
CONTINUOUS
 62
   253
 10
17924.38058299163
 20
20823.59505575211
 30
0.0
 11
17924.38058299163
 21
23244.67700533426
 31
0.0
  0
LINE
  5
4F9
  8
0
  6
CONTINUOUS
 62
     9
 10
17924.38058299163
 20
22034.13603054318
 30
0.0
 11
20739.85623252019
 21
22034.13603054318
 31
0.0
  0
LINE
  5
4FA
  8
0
  6
CONTINUOUS
 62
   253
 10
19351.16329683805
 20
20823.59505575211
 30
0.0
 11
19351.16329683805
 21
23244.67700533426
 31
0.0
  0
INSERT
  5
4FB
  8
一般
 62
   253
  2
グループ-5
 10
19705.69196630416
 20
12269.95049671124
 30
0.0
  0
LINE
  5
4FC
  8
一般
  6
CONTINUOUS
 62
   253
 10
17915.91865192841
 20
25845.13683594378
 30
0.0
 11
17911.58613822398
 21
25290.11229591806
 31
0.0
  0
LINE
  5
4FD
  8
一般
  6
CONTINUOUS
 62
     9
 10
18321.58613822398
 20
25300.11229591806
 30
0.0
 11
20718.28305230775
 21
25300.11229591806
 31
0.0
  0
LINE
  5
4FE
  8
一般
  6
CONTINUOUS
 62
   253
 10
20705.36021980369
 20
25300.11229591806
 30
0.0
 11
20702.99581942434
 21
25845.13683594378
 31
0.0
  0
LINE
  5
4FF
  8
一般
  6
CONTINUOUS
 62
   253
 10
17935.91865192841
 20
25825.13683594378
 30
0.0
 11
20718.28305230775
 21
25834.87209340591
 31
0.0
  0
LINE
  5
500
  8
一般
  6
CONTINUOUS
 62
   253
 10
21366.53701150485
 20
25800.41119851227
 30
0.0
 11
24156.53701150485
 21
25800.41119851227
 31
0.0
  0
LINE
  5
501
  8
一般
  6
CONTINUOUS
 62
   253
 10
21358.02397646939
 20
25815.13683594378
 30
0.0
 11
21358.02397646939
 21
25305.13683594378
 31
0.0
  0
LINE
  5
502
  8
一般
  6
CONTINUOUS
 62
   253
 10
24139.71531880984
 20
25795.13683594378
 30
0.0
 11
24139.71531880984
 21
25285.13683594378
 31
0.0
  0
INSERT
  5
503
  8
0
 62
   253
  2
グループ-6
 10
19705.69196630416
 20
12269.95049671124
 30
0.0
  0
LINE
  5
504
  8
一般
  6
CONTINUOUS
 62
   253
 10
24734.56403421319
 20
25831.44233887891
 30
0.0
 11
24730.23152050877
 21
25276.4177988532
 31
0.0
  0
LINE
  5
505
  8
一般
  6
CONTINUOUS
 62
     9
 10
25140.23152050877
 20
25286.4177988532
 30
0.0
 11
27536.92843459254
 21
25286.4177988532
 31
0.0
  0
LINE
  5
506
  8
一般
  6
CONTINUOUS
 62
   253
 10
27524.00562134498
 20
25286.4177988532
 30
0.0
 11
27521.64122096563
 21
25831.44233887891
 31
0.0
  0
LINE
  5
507
  8
一般
  6
CONTINUOUS
 62
   253
 10
24754.56403421319
 20
25811.44233887891
 30
0.0
 11
27536.92843459254
 21
25821.17759634104
 31
0.0
  0
LINE
  5
508
  8
0
  6
CONTINUOUS
 62
   253
 10
21293.13357438042
 20
23189.29117093564
 30
0.0
 11
24108.60922390899
 21
23189.29117093564
 31
0.0
  0
LINE
  5
509
  8
0
  6
CONTINUOUS
 62
   253
 10
24108.60922390899
 20
23189.29117093564
 30
0.0
 11
24108.60922390899
 21
20768.20922135349
 31
0.0
  0
LINE
  5
50A
  8
0
  6
CONTINUOUS
 62
   253
 10
24108.60922390899
 20
20768.20922135349
 30
0.0
 11
21312.17846346256
 21
20768.20922135349
 31
0.0
  0
LINE
  5
50B
  8
0
  6
CONTINUOUS
 62
   253
 10
21293.13357438042
 20
20768.20922135349
 30
0.0
 11
21293.13357438042
 21
23189.29117093564
 31
0.0
  0
LINE
  5
50C
  8
0
  6
CONTINUOUS
 62
   253
 10
21293.13357438042
 20
21978.75019614456
 30
0.0
 11
24108.60922390899
 21
21978.75019614456
 31
0.0
  0
LINE
  5
50D
  8
0
  6
CONTINUOUS
 62
   253
 10
22719.91628822685
 20
20768.20922135349
 30
0.0
 11
22719.91628822685
 21
23189.29117093564
 31
0.0
  0
LINE
  5
50E
  8
0
  6
CONTINUOUS
 62
   253
 10
24776.82014804684
 20
23212.67383096818
 30
0.0
 11
27592.2957975754
 21
23212.67383096818
 31
0.0
  0
LINE
  5
50F
  8
0
  6
CONTINUOUS
 62
   253
 10
27592.2957975754
 20
23212.67383096818
 30
0.0
 11
27592.2957975754
 21
20791.59188138603
 31
0.0
  0
LINE
  5
510
  8
0
  6
CONTINUOUS
 62
   253
 10
27592.2957975754
 20
20791.59188138603
 30
0.0
 11
24795.86503712898
 21
20791.59188138603
 31
0.0
  0
LINE
  5
511
  8
0
  6
CONTINUOUS
 62
   253
 10
24776.82014804684
 20
20791.59188138603
 30
0.0
 11
24776.82014804684
 21
23212.67383096818
 31
0.0
  0
LINE
  5
512
  8
0
  6
CONTINUOUS
 62
   253
 10
24776.82014804684
 20
22002.1328561771
 30
0.0
 11
27592.2957975754
 21
22002.1328561771
 31
0.0
  0
LINE
  5
513
  8
0
  6
CONTINUOUS
 62
   253
 10
26203.60286189326
 20
20791.59188138603
 30
0.0
 11
26203.60286189326
 21
23212.67383096818
 31
0.0
  0
INSERT
  5
514
  8
一般
 62
   253
  2
グループ-10
 10
19705.69196630416
 20
12269.95049671124
 30
0.0
  0
INSERT
  5
515
  8
一般
 62
   253
  2
グループ-14
 10
19705.69196630416
 20
12269.95049671124
 30
0.0
  0
INSERT
  5
516
  8
一般
 62
   253
  2
グループ-18
 10
19705.69196630416
 20
12269.95049671124
 30
0.0
  0
INSERT
  5
517
  8
0
 62
   253
  2
グループ-19
 10
19705.69196630416
 20
12269.95049671124
 30
0.0
  0
INSERT
  5
518
  8
0
 62
   253
  2
グループ-20
 10
19705.69196630416
 20
12269.95049671124
 30
0.0
  0
LINE
  5
519
  8
0
  6
CONTINUOUS
 62
     9
 10
22708.4504218361
 20
5448.837860077279
 30
0.0
 11
22708.4504218361
 21
6921.370639147239
 31
0.0
  0
LINE
  5
51A
  8
一般
  6
CONTINUOUS
 62
     9
 10
18330.20164232215
 20
6920.553907360942
 30
0.0
 11
20726.89855640592
 21
6920.553907360942
 31
0.0
  0
INSERT
  5
51B
  8
0
 62
   253
  2
グループ-21
 10
19705.69196630416
 20
12269.95049671124
 30
0.0
  0
LINE
  5
51C
  8
一般
  6
CONTINUOUS
 62
     9
 10
25148.84702460693
 20
6906.859410296069
 30
0.0
 11
27545.5439386907
 21
6906.859410296069
 31
0.0
  0
TEXT
  5
51D
  8
VENUE
  6
CONTINUOUS
 62
     7
 10
25475.74643052497
 20
31541.52777777778
 30
0.0
 40
676.9612630208334
  1
控室B
  7
OSAKA
  0
TEXT
  5
51E
  8
0
  6
CONTINUOUS
 62
     7
 10
23440.0
 20
29983.80321120924
 30
0.0
 40
947.7457682291665
  1
61㎡
  7
ＭＳ_ゴシック
  0
INSERT
  5
51F
  8
0
 62
     7
  2
*X34
 10
0.0
 20
0.0
 30
0.0
  0
TEXT
  5
520
  8
VENUE
  6
CONTINUOUS
 62
     7
 10
34420.0
 20
20529.95886173263
 30
0.0
 40
676.9612630208334
  1
控室A
  7
OSAKA
  0
INSERT
  5
521
  8
0
 62
     7
  2
*X35
 10
0.0
 20
0.0
 30
0.0
  0
INSERT
  5
522
  8
0
 62
     7
  2
*X36
 10
0.0
 20
0.0
 30
0.0
  0
TEXT
  5
523
  8
0
  6
CONTINUOUS
 62
     7
 10
7676.72691091484
 20
1539.833333333334
 30
0.0
 40
812.3535156249999
  1
H3000
  7
FELIX_TITLING
  0
TEXT
  5
524
  8
0
  6
CONTINUOUS
 62
     7
 10
7571.353980711641
 20
258.2650610620459
 30
0.0
 40
812.3535156249999
  1
272㎡
  7
ＭＳ_ゴシック
  0
INSERT
  5
525
  8
0
 62
     7
  2
*X37
 10
0.0
 20
0.0
 30
0.0
  0
INSERT
  5
527
  8
0
 62
     7
  2
*X38
 10
0.0
 20
0.0
 30
0.0
  0
TEXT
  5
528
  8
0
  6
CONTINUOUS
 62
     7
 10
20348.16175001872
 20
929.3110545732453
 30
0.0
 40
812.3535156249999
  1
H3000
  7
FELIX_TITLING
  0
TEXT
  5
52A
  8
0
  6
CONTINUOUS
 62
     7
 10
21288.86887081497
 20
7236.98211395191
 30
0.0
 40
812.3535156249999
  1
H6100
  7
FELIX_TITLING
  0
TEXT
  5
52B
  8
0
  6
CONTINUOUS
 62
     7
 10
20326.02223226826
 20
-250.1666666666659
 30
0.0
 40
812.3535156249999
  1
128㎡
  7
FELIX_TITLING
  0
TEXT
  5
52C
  8
0
  6
CONTINUOUS
 62
     7
 10
23580.0
 20
-140.1584472573297
 30
0.0
 40
676.9612630208333
  1
38坪
  7
FELIX_TITLING
  0
TEXT
  5
52E
  8
0
  6
CONTINUOUS
 62
     7
 10
23979.57287884058
 20
6084.581139524829
 30
0.0
 40
676.9612630208333
  1
89坪
  7
FELIX_TITLING
  0
ENDSEC
  0
EOF
