  0
SECTION
  2
HEADER
  9
$ACADVER
  1
AC1006
  9
$DWGCODEPAGE
  3
ansi_932
  9
$INSBASE
 10
0.0
 20
0.0
 30
0.0
  9
$EXTMIN
 10
-8683.272770360143
 20
-14055.48759750876
  9
$EXTMAX
 10
8000.727229639887
 20
12307.51240249125
  9
$LIMMIN
 10
0.0
 20
0.0
  9
$LIMMAX
 10
12.0
 20
9.0
  9
$ORTHOMODE
 70
     0
  9
$REGENMODE
 70
     1
  9
$FILLMODE
 70
     1
  9
$QTEXTMODE
 70
     0
  9
$MIRRTEXT
 70
     1
  9
$DRAGMODE
 70
     2
  9
$LTSCALE
 40
80.0
  9
$OSMODE
 70
    37
  9
$ATTMODE
 70
     1
  9
$TEXTSIZE
 40
0.2
  9
$TRACEWID
 40
1.0
  9
$TEXTSTYLE
  7
STANDARD
  9
$CLAYER
  8
一般
  9
$CELTYPE
  6
BYLAYER
  9
$CECOLOR
 62
   256
  9
$DIMSCALE
 40
1.0
  9
$DIMASZ
 40
0.18
  9
$DIMEXO
 40
0.0625
  9
$DIMDLI
 40
0.38
  9
$DIMRND
 40
0.0
  9
$DIMDLE
 40
0.0
  9
$DIMEXE
 40
0.18
  9
$DIMTP
 40
0.0
  9
$DIMTM
 40
0.0
  9
$DIMTXT
 40
0.18
  9
$DIMCEN
 40
0.09
  9
$DIMTSZ
 40
0.0
  9
$DIMTOL
 70
     0
  9
$DIMLIM
 70
     0
  9
$DIMTIH
 70
     1
  9
$DIMTOH
 70
     1
  9
$DIMSE1
 70
     0
  9
$DIMSE2
 70
     0
  9
$DIMTAD
 70
     0
  9
$DIMZIN
 70
     0
  9
$DIMBLK
  1

  9
$DIMASO
 70
     1
  9
$DIMSHO
 70
     1
  9
$DIMPOST
  1

  9
$DIMAPOST
  1

  9
$DIMALT
 70
     0
  9
$DIMALTD
 70
     2
  9
$DIMALTF
 40
25.4
  9
$DIMLFAC
 40
1.0
  9
$DIMTOFL
 70
     0
  9
$DIMTVP
 40
0.0
  9
$DIMTIX
 70
     0
  9
$DIMSOXD
 70
     0
  9
$DIMSAH
 70
     0
  9
$DIMBLK1
  1

  9
$DIMBLK2
  1

  9
$LUNITS
 70
     2
  9
$LUPREC
 70
     1
  9
$SKETCHINC
 40
0.1
  9
$FILLETRAD
 40
0.5
  9
$AUNITS
 70
     0
  9
$AUPREC
 70
     2
  9
$MENU
  1
.
  9
$ELEVATION
 40
0.0
  9
$THICKNESS
 40
0.0
  9
$LIMCHECK
 70
     0
  9
$CHAMFERA
 40
0.0
  9
$CHAMFERB
 40
0.0
  9
$SKPOLY
 70
     0
  9
$TDCREATE
 40
2460293.419631968
  9
$TDUPDATE
 40
2460316.350272002
  9
$TDINDWG
 40
0.0000000116
  9
$TDUSRTIMER
 40
0.0000000116
  9
$USRTIMER
 70
     1
  9
$ANGBASE
 50
0.0
  9
$ANGDIR
 70
     0
  9
$PDMODE
 70
     1
  9
$PDSIZE
 40
-2.0
  9
$PLINEWID
 40
0.0
  9
$COORDS
 70
     1
  9
$SPLFRAME
 70
     0
  9
$SPLINETYPE
 70
     6
  9
$SPLINESEGS
 70
     8
  9
$ATTDIA
 70
     0
  9
$ATTREQ
 70
     1
  9
$HANDLING
 70
     1
  9
$HANDSEED
  5
28B
  9
$SURFTAB1
 70
     6
  9
$SURFTAB2
 70
     6
  9
$SURFTYPE
 70
     6
  9
$SURFU
 70
     6
  9
$SURFV
 70
     6
  9
$UCSNAME
  2

  9
$UCSORG
 10
0.0
 20
0.0
 30
0.0
  9
$UCSXDIR
 10
1.0
 20
0.0
 30
0.0
  9
$UCSYDIR
 10
0.0
 20
1.0
 30
0.0
  9
$USERI1
 70
     0
  9
$USERI2
 70
     0
  9
$USERI3
 70
     0
  9
$USERI4
 70
     0
  9
$USERI5
 70
     0
  9
$USERR1
 40
0.0
  9
$USERR2
 40
0.0
  9
$USERR3
 40
0.0
  9
$USERR4
 40
0.0
  9
$USERR5
 40
0.0
  9
$WORLDVIEW
 70
     1
  0
ENDSEC
  0
SECTION
  2
TABLES
  0
TABLE
  2
VPORT
 70
     1
  0
VPORT
  2
*ACTIVE
 70
     0
 10
0.0
 20
0.0
 11
1.0
 21
1.0
 12
-341.2727703601286
 22
-873.9875975087562
 13
0.0
 23
0.0
 14
0.5
 24
0.5
 15
0.5
 25
0.5
 16
0.0
 26
0.0
 36
1.0
 17
0.0
 27
0.0
 37
0.0
 40
26363.0
 41
0.6328566551606428
 42
2000.0
 43
0.0
 44
0.0
 50
0.0
 51
0.0
 71
     0
 72
   100
 73
     1
 74
     3
 75
     0
 76
     0
 77
     0
 78
     0
  0
ENDTAB
  0
TABLE
  2
LTYPE
 70
    11
  0
LTYPE
  2
CONTINUOUS
 70
     0
  3
Solid line
 72
    65
 73
     0
 40
0.0
  0
LTYPE
  2
ラインタイプ-10
 70
     0
  3

 72
    65
 73
     6
 40
30.1625
 49
19.05
 49
-1.411147799999999
 49
3.527704400000002
 49
-1.411147799999999
 49
3.175
 49
-1.5875
  0
LTYPE
  2
ラインタイプ-9
 70
     0
  3

 72
    65
 73
     4
 40
25.4
 49
19.05
 49
-1.411147799999999
 49
3.527704400000002
 49
-1.411147799999999
  0
LTYPE
  2
ラインタイプ-8
 70
     0
  3

 72
    65
 73
     6
 40
6.35
 49
3.175
 49
-1.0580624
 49
0.3527044000000002
 49
-0.7057644000000001
 49
0.3527043999999995
 49
-0.7057644000000001
  0
LTYPE
  2
ラインタイプ-7
 70
     0
  3

 72
    65
 73
     6
 40
9.524999999999999
 49
3.175
 49
-1.0580624
 49
3.175000000000001
 49
-1.0584688
 49
0.3527044000000002
 49
-0.7057643999999994
  0
LTYPE
  2
ラインタイプ-6
 70
     0
  3

 72
    65
 73
     4
 40
5.2915312
 49
3.175
 49
-1.0580624
 49
0.3527044000000002
 49
-0.7057644000000001
  0
LTYPE
  2
ラインタイプ-5
 70
     0
  3

 72
    65
 73
     2
 40
1.0580624
 49
0.352679
 49
-0.7053833999999999
  0
LTYPE
  2
ラインタイプ-4
 70
     0
  3

 72
    65
 73
     2
 40
7.760766799999999
 49
6.702678999999999
 49
-1.0580878
  0
LTYPE
  2
ラインタイプ-3
 70
     0
  3

 72
    65
 73
     2
 40
6.35
 49
5.2915312
 49
-1.0584688
  0
LTYPE
  2
ラインタイプ-2
 70
     0
  3

 72
    65
 73
     2
 40
3.527679
 49
2.4692356
 49
-1.0584434
  0
LTYPE
  2
ラインタイプ-1
 70
     0
  3

 72
    65
 73
     2
 40
2.1165312
 49
1.0580624
 49
-1.0584688
  0
ENDTAB
  0
TABLE
  2
LAYER
 70
     3
  0
LAYER
  2
0
 70
     0
 62
     7
  6
CONTINUOUS
  0
LAYER
  2
一般
 70
     0
 62
     7
  6
CONTINUOUS
  0
LAYER
  2
VENUE
 70
     0
 62
     7
  6
CONTINUOUS
  0
ENDTAB
  0
TABLE
  2
STYLE
 70
     1
  0
STYLE
  2
STANDARD
 70
     0
 40
0.0
 41
1.0
 50
0.0
 71
     0
 42
0.2
  3
txt
  4
BIGFONT.SHX
  0
ENDTAB
  0
TABLE
  2
VIEW
 70
     0
  0
ENDTAB
  0
TABLE
  2
UCS
 70
     0
  0
ENDTAB
  0
ENDSEC
  0
SECTION
  2
BLOCKS
  0
BLOCK
  8
0
  2
グループ
 70
     0
 10
0.0
 20
0.0
 30
0.0
  0
LINE
  5
C9
  8
VENUE
  6
CONTINUOUS
 62
     7
 10
7800.727229639875
 20
10707.51240249124
 30
0.0
 11
7800.727229639875
 21
2707.512402491236
 31
0.0
  0
LINE
  5
CA
  8
VENUE
  6
CONTINUOUS
 62
     7
 10
-7783.272770360142
 20
9963.607066344119
 30
0.0
 11
-7783.272770360142
 21
2707.512402491236
 31
0.0
  0
LINE
  5
CB
  8
VENUE
  6
CONTINUOUS
 62
     7
 10
-6483.272770360142
 20
7257.512402491246
 30
0.0
 11
-6483.272770360142
 21
5857.512402491246
 31
0.0
  0
LINE
  5
CC
  8
VENUE
  6
CONTINUOUS
 62
     7
 10
6500.727229639858
 20
7244.512402491246
 30
0.0
 11
6500.727229639858
 21
5894.512402491246
 31
0.0
  0
LINE
  5
CD
  8
VENUE
  6
CONTINUOUS
 62
     7
 10
-6983.272770360142
 20
8657.51240249124
 30
0.0
 11
-7483.272770360142
 21
8657.51240249124
 31
0.0
  0
LINE
  5
CE
  8
VENUE
  6
CONTINUOUS
 62
     7
 10
-7483.272770360142
 20
5857.512402491246
 30
0.0
 11
-7483.272770360142
 21
2957.512402491234
 31
0.0
  0
LINE
  5
CF
  8
VENUE
  6
CONTINUOUS
 62
     7
 10
-6783.272770360142
 20
5857.512402491246
 30
0.0
 11
-6783.272770360142
 21
2957.512402491234
 31
0.0
  0
LINE
  5
D0
  8
VENUE
  6
CONTINUOUS
 62
     7
 10
-6583.272770360142
 20
5857.512402491246
 30
0.0
 11
-6583.272770360142
 21
2757.512402491236
 31
0.0
  0
LINE
  5
D1
  8
VENUE
  6
CONTINUOUS
 62
     7
 10
-6983.272770360142
 20
9757.512402491238
 30
0.0
 11
-6983.272770360142
 21
8657.51240249124
 31
0.0
  0
LINE
  5
D2
  8
VENUE
  6
CONTINUOUS
 62
     7
 10
-5183.272770360141
 20
10057.51240249124
 30
0.0
 11
-341.2727703601259
 21
10057.51240249124
 31
0.0
  0
LINE
  5
D3
  8
VENUE
  6
CONTINUOUS
 62
     7
 10
-5183.272770360141
 20
9757.512402491238
 30
0.0
 11
-341.2727703601259
 21
9757.512402491238
 31
0.0
  0
LINE
  5
D4
  8
VENUE
  6
CONTINUOUS
 62
     7
 10
-6783.272770360142
 20
9757.512402491238
 30
0.0
 11
-6983.272770360142
 21
9757.512402491238
 31
0.0
  0
LINE
  5
D5
  8
VENUE
  6
CONTINUOUS
 62
     7
 10
-6783.272770360142
 20
9757.512402491238
 30
0.0
 11
-6783.272770360142
 21
7257.512402491246
 31
0.0
  0
LINE
  5
D6
  8
VENUE
  6
CONTINUOUS
 62
     7
 10
-6583.272770360142
 20
9757.512402491238
 30
0.0
 11
-6583.272770360142
 21
7257.512402491246
 31
0.0
  0
LINE
  5
D7
  8
VENUE
  6
CONTINUOUS
 62
     7
 10
-6583.272770360142
 20
2757.512402491236
 30
0.0
 11
-7483.272770360142
 21
2757.512402491236
 31
0.0
  0
LINE
  5
D8
  8
VENUE
  6
CONTINUOUS
 62
     7
 10
-6783.272770360142
 20
2957.512402491234
 30
0.0
 11
-7483.272770360142
 21
2957.512402491234
 31
0.0
  0
LINE
  5
D9
  8
VENUE
  6
CONTINUOUS
 62
     7
 10
-7783.272770360142
 20
2707.512402491236
 30
0.0
 11
-7483.272770360142
 21
2707.512402491236
 31
0.0
  0
LINE
  5
DA
  8
VENUE
  6
CONTINUOUS
 62
     7
 10
-7483.272770360142
 20
2707.512402491236
 30
0.0
 11
-7483.272770360142
 21
2757.512402491236
 31
0.0
  0
LINE
  5
DB
  8
VENUE
  6
CONTINUOUS
 62
     7
 10
-6783.272770360142
 20
7257.512402491246
 30
0.0
 11
-7483.272770360142
 21
7257.512402491246
 31
0.0
  0
LINE
  5
DC
  8
VENUE
  6
CONTINUOUS
 62
     7
 10
-6483.272770360142
 20
5857.512402491246
 30
0.0
 11
-6583.272770360142
 21
5857.512402491246
 31
0.0
  0
LINE
  5
DD
  8
VENUE
  6
CONTINUOUS
 62
     7
 10
-6783.272770360142
 20
5857.512402491246
 30
0.0
 11
-7483.272770360142
 21
5857.512402491246
 31
0.0
  0
LINE
  5
DE
  8
VENUE
  6
CONTINUOUS
 62
     7
 10
-6583.272770360142
 20
7257.512402491246
 30
0.0
 11
-6483.272770360142
 21
7257.512402491246
 31
0.0
  0
LINE
  5
DF
  8
VENUE
  6
CONTINUOUS
 62
     7
 10
-7483.272770360142
 20
7257.512402491246
 30
0.0
 11
-7483.272770360142
 21
8657.51240249124
 31
0.0
  0
LINE
  5
E0
  8
VENUE
  6
CONTINUOUS
 62
     7
 10
6100.727229639858
 20
10057.51240249124
 30
0.0
 11
6650.727229639858
 21
10057.51240249124
 31
0.0
  0
LINE
  5
E1
  8
VENUE
  6
CONTINUOUS
 62
     7
 10
7500.727229639861
 20
9507.512402491235
 30
0.0
 11
7500.727229639861
 21
7244.512402491246
 31
0.0
  0
LINE
  5
E2
  8
VENUE
  6
CONTINUOUS
 62
     7
 10
6100.727229639858
 20
9757.512402491238
 30
0.0
 11
6650.727229639858
 21
9757.512402491238
 31
0.0
  0
LINE
  5
E3
  8
VENUE
  6
CONTINUOUS
 62
     7
 10
6850.727229639858
 20
9507.512402491235
 30
0.0
 11
6850.727229639858
 21
7244.512402491246
 31
0.0
  0
LINE
  5
E4
  8
VENUE
  6
CONTINUOUS
 62
     7
 10
6650.727229639858
 20
9757.512402491238
 30
0.0
 11
6650.727229639858
 21
7244.512402491246
 31
0.0
  0
LINE
  5
E5
  8
VENUE
  6
CONTINUOUS
 62
     7
 10
6100.727229639858
 20
10057.51240249124
 30
0.0
 11
6100.727229639858
 21
9757.512402491238
 31
0.0
  0
LINE
  5
E6
  8
VENUE
  6
CONTINUOUS
 62
     7
 10
6650.727229639858
 20
10057.51240249124
 30
0.0
 11
6650.727229639858
 21
10307.51240249124
 31
0.0
  0
LINE
  5
E7
  8
VENUE
  6
CONTINUOUS
 62
     7
 10
6650.727229639858
 20
10307.51240249124
 30
0.0
 11
7550.727229639862
 21
10307.51240249124
 31
0.0
  0
LINE
  5
E8
  8
VENUE
  6
CONTINUOUS
 62
     7
 10
7550.727229639862
 20
10307.51240249124
 30
0.0
 11
7550.727229639862
 21
10707.51240249124
 31
0.0
  0
LINE
  5
E9
  8
VENUE
  6
CONTINUOUS
 62
     7
 10
7500.727229639861
 20
10707.51240249124
 30
0.0
 11
7800.727229639875
 21
10707.51240249124
 31
0.0
  0
LINE
  5
EA
  8
VENUE
  6
CONTINUOUS
 62
     7
 10
6850.727229639858
 20
9507.512402491235
 30
0.0
 11
7500.727229639861
 21
9507.512402491235
 31
0.0
  0
LINE
  5
EB
  8
VENUE
  6
CONTINUOUS
 62
     7
 10
6650.727229639858
 20
2757.512402491236
 30
0.0
 11
7500.727229639861
 21
2757.512402491236
 31
0.0
  0
LINE
  5
EC
  8
VENUE
  6
CONTINUOUS
 62
     7
 10
7800.727229639875
 20
2707.512402491236
 30
0.0
 11
7500.727229639861
 21
2707.512402491236
 31
0.0
  0
LINE
  5
ED
  8
VENUE
  6
CONTINUOUS
 62
     7
 10
6850.727229639858
 20
2957.512402491234
 30
0.0
 11
7500.727229639861
 21
2957.512402491234
 31
0.0
  0
LINE
  5
EE
  8
VENUE
  6
CONTINUOUS
 62
     7
 10
7500.727229639861
 20
2707.512402491236
 30
0.0
 11
7500.727229639861
 21
2757.512402491236
 31
0.0
  0
LINE
  5
EF
  8
VENUE
  6
CONTINUOUS
 62
     7
 10
7500.727229639861
 20
2957.512402491234
 30
0.0
 11
7500.727229639861
 21
5894.512402491246
 31
0.0
  0
LINE
  5
F0
  8
VENUE
  6
CONTINUOUS
 62
     7
 10
6850.727229639858
 20
2957.512402491234
 30
0.0
 11
6850.727229639858
 21
5894.512402491246
 31
0.0
  0
LINE
  5
F1
  8
VENUE
  6
CONTINUOUS
 62
     7
 10
6650.727229639858
 20
2757.512402491236
 30
0.0
 11
6650.727229639858
 21
5894.512402491246
 31
0.0
  0
LINE
  5
F2
  8
VENUE
  6
CONTINUOUS
 62
     7
 10
5300.727229639858
 20
10057.51240249124
 30
0.0
 11
5300.727229639858
 21
9757.512402491238
 31
0.0
  0
LINE
  5
F3
  8
VENUE
  6
CONTINUOUS
 62
     7
 10
-341.2727703601259
 20
10057.51240249124
 30
0.0
 11
-341.2727703601259
 21
10307.51240249124
 31
0.0
  0
LINE
  5
F4
  8
VENUE
  6
CONTINUOUS
 62
     7
 10
458.7272296398747
 20
9507.512402491235
 30
0.0
 11
458.7272296398747
 21
9757.512402491238
 31
0.0
  0
LINE
  5
F5
  8
VENUE
  6
CONTINUOUS
 62
     7
 10
-341.2727703601259
 20
9507.512402491235
 30
0.0
 11
458.7272296398747
 21
9507.512402491235
 31
0.0
  0
LINE
  5
F6
  8
VENUE
  6
CONTINUOUS
 62
     7
 10
458.7272296398747
 20
10307.51240249124
 30
0.0
 11
-341.2727703601259
 21
10307.51240249124
 31
0.0
  0
LINE
  5
F7
  8
VENUE
  6
CONTINUOUS
 62
     7
 10
5300.727229639858
 20
9757.512402491238
 30
0.0
 11
458.7272296398747
 21
9757.512402491238
 31
0.0
  0
LINE
  5
F8
  8
VENUE
  6
CONTINUOUS
 62
     7
 10
5300.727229639858
 20
10057.51240249124
 30
0.0
 11
458.7272296398747
 21
10057.51240249124
 31
0.0
  0
LINE
  5
F9
  8
VENUE
  6
CONTINUOUS
 62
     7
 10
458.7272296398747
 20
10307.51240249124
 30
0.0
 11
458.7272296398747
 21
10057.51240249124
 31
0.0
  0
LINE
  5
FA
  8
VENUE
  6
CONTINUOUS
 62
     7
 10
6100.727229639858
 20
10057.51240249124
 30
0.0
 11
6100.727229639858
 21
10857.51240249124
 31
0.0
  0
ARC
  5
FC
  8
VENUE
  6
CONTINUOUS
 62
     7
 10
6100.727229639858
 20
10057.51240249124
 30
0.0
 40
800.0
 50
90.0
 51
180.0
  0
LINE
  5
FD
  8
VENUE
  6
CONTINUOUS
 62
     7
 10
6100.727229639858
 20
10057.51240249124
 30
0.0
 11
5300.727229639858
 21
10057.51240249124
 31
0.0
  0
LINE
  5
FE
  8
VENUE
  6
CONTINUOUS
 62
     7
 10
-341.2727703601259
 20
9757.512402491238
 30
0.0
 11
-341.2727703601259
 21
9507.512402491235
 31
0.0
  0
LINE
  5
FF
  8
VENUE
  6
CONTINUOUS
 62
     7
 10
-5183.272770360141
 20
10057.51240249124
 30
0.0
 11
-5183.272770360141
 21
9757.512402491238
 31
0.0
  0
LINE
  5
100
  8
VENUE
  6
CONTINUOUS
 62
     7
 10
-6583.272770360142
 20
9757.512402491238
 30
0.0
 11
-5983.272770360142
 21
9757.512402491238
 31
0.0
  0
LINE
  5
101
  8
VENUE
  6
CONTINUOUS
 62
     7
 10
-5983.272770360142
 20
9757.512402491238
 30
0.0
 11
-5983.272770360142
 21
10057.51240249124
 31
0.0
  0
LINE
  5
102
  8
VENUE
  6
CONTINUOUS
 62
     7
 10
-5983.272770360142
 20
10057.51240249124
 30
0.0
 11
-5983.272770360142
 21
10857.51240249124
 31
0.0
  0
ARC
  5
104
  8
VENUE
  6
CONTINUOUS
 62
     7
 10
-5983.272770360141
 20
10057.51240249124
 30
0.0
 40
800.0
 50
0.0
 51
90.0
  0
LINE
  5
105
  8
VENUE
  6
CONTINUOUS
 62
     7
 10
7550.727229639862
 20
10707.51240249124
 30
0.0
 11
7550.727229639862
 21
12307.51240249125
 31
0.0
  0
LINE
  5
106
  8
VENUE
  6
CONTINUOUS
 62
     7
 10
7550.727229639862
 20
10707.51240249124
 30
0.0
 11
6750.727229639858
 21
10707.51240249124
 31
0.0
  0
ARC
  5
108
  8
VENUE
  6
CONTINUOUS
 62
     7
 10
7550.727229639862
 20
10707.51240249124
 30
0.0
 40
800.0000000000036
 50
90.0
 51
180.0
  0
LINE
  5
109
  8
VENUE
  6
CONTINUOUS
 62
     7
 10
-7783.272770360142
 20
-3242.487597508764
 30
0.0
 11
-7783.272770360142
 21
-12605.48759750876
 31
0.0
  0
LINE
  5
10A
  8
VENUE
  6
CONTINUOUS
 62
     7
 10
-6583.272770360142
 20
-11072.48759750876
 30
0.0
 11
-6583.272770360142
 21
-12455.48759750876
 31
0.0
  0
LINE
  5
10B
  8
VENUE
  6
CONTINUOUS
 62
     7
 10
-6583.272770360142
 20
-11072.48759750876
 30
0.0
 11
-7493.272770360142
 21
-11072.48759750876
 31
0.0
  0
LINE
  5
10C
  8
VENUE
  6
CONTINUOUS
 62
     7
 10
-6783.272770360142
 20
-11279.48759750876
 30
0.0
 11
-6783.272770360142
 21
-12455.48759750876
 31
0.0
  0
LINE
  5
10D
  8
VENUE
  6
CONTINUOUS
 62
     7
 10
-6583.272770360142
 20
-9172.487597508758
 30
0.0
 11
-7493.272770360142
 21
-9172.487597508758
 31
0.0
  0
LINE
  5
10E
  8
VENUE
  6
CONTINUOUS
 62
     7
 10
-6583.272770360142
 20
-9172.487597508758
 30
0.0
 11
-6583.272770360142
 21
-7505.48759750875
 31
0.0
  0
LINE
  5
10F
  8
VENUE
  6
CONTINUOUS
 62
     7
 10
-6483.272770360142
 20
-7505.48759750875
 30
0.0
 11
-6483.272770360142
 21
-6205.487597508754
 31
0.0
  0
LINE
  5
110
  8
VENUE
  6
CONTINUOUS
 62
     7
 10
-6583.272770360142
 20
-5042.487597508754
 30
0.0
 11
-7783.272770360142
 21
-5042.487597508754
 31
0.0
  0
LINE
  5
111
  8
VENUE
  6
CONTINUOUS
 62
     7
 10
-6583.272770360142
 20
-5042.487597508754
 30
0.0
 11
-6583.272770360142
 21
-6205.487597508754
 31
0.0
  0
LINE
  5
112
  8
VENUE
  6
CONTINUOUS
 62
     7
 10
-6783.272770360142
 20
-7505.48759750875
 30
0.0
 11
-6783.272770360142
 21
-9022.487597508758
 31
0.0
  0
LINE
  5
113
  8
VENUE
  6
CONTINUOUS
 62
     7
 10
-7503.272770360142
 20
-7505.48759750875
 30
0.0
 11
-7503.272770360142
 21
-9022.487597508758
 31
0.0
  0
LINE
  5
114
  8
VENUE
  6
CONTINUOUS
 62
     7
 10
-6783.272770360142
 20
-5242.487597508754
 30
0.0
 11
-6783.272770360142
 21
-6205.487597508754
 31
0.0
  0
LINE
  5
115
  8
VENUE
  6
CONTINUOUS
 62
     7
 10
-7503.272770360142
 20
-6205.487597508754
 30
0.0
 11
-7503.272770360142
 21
-5242.487597508754
 31
0.0
  0
LINE
  5
116
  8
VENUE
  6
CONTINUOUS
 62
     7
 10
-6783.272770360142
 20
-5242.487597508754
 30
0.0
 11
-7503.272770360142
 21
-5242.487597508754
 31
0.0
  0
LINE
  5
117
  8
VENUE
  6
CONTINUOUS
 62
     7
 10
-6783.272770360142
 20
-9022.487597508758
 30
0.0
 11
-7493.272770360142
 21
-9022.487597508758
 31
0.0
  0
LINE
  5
118
  8
VENUE
  6
CONTINUOUS
 62
     7
 10
-6783.272770360142
 20
-11272.48759750876
 30
0.0
 11
-7493.272770360142
 21
-11272.48759750876
 31
0.0
  0
LINE
  5
119
  8
VENUE
  6
CONTINUOUS
 62
     7
 10
-7503.272770360142
 20
-11272.48759750876
 30
0.0
 11
-7503.272770360142
 21
-12455.48759750876
 31
0.0
  0
LINE
  5
11A
  8
VENUE
  6
CONTINUOUS
 62
     7
 10
-7493.272770360142
 20
-11022.48759750876
 30
0.0
 11
-7783.272770360142
 21
-11022.48759750876
 31
0.0
  0
LINE
  5
11B
  8
VENUE
  6
CONTINUOUS
 62
     7
 10
-7493.272770360142
 20
-11022.48759750876
 30
0.0
 11
-7493.272770360142
 21
-11072.48759750876
 31
0.0
  0
LINE
  5
11C
  8
VENUE
  6
CONTINUOUS
 62
     7
 10
-7493.272770360142
 20
-9222.487597508758
 30
0.0
 11
-7783.272770360142
 21
-9222.487597508758
 31
0.0
  0
LINE
  5
11D
  8
VENUE
  6
CONTINUOUS
 62
     7
 10
-7493.272770360142
 20
-9222.487597508758
 30
0.0
 11
-7493.272770360142
 21
-9172.487597508758
 31
0.0
  0
LINE
  5
11E
  8
VENUE
  6
CONTINUOUS
 62
     7
 10
-7783.272770360142
 20
-11022.48759750876
 30
0.0
 11
-8683.2727703601
 21
-11022.48759750876
 31
0.0
  0
LINE
  5
11F
  8
VENUE
  6
CONTINUOUS
 62
     7
 10
-7783.272770360142
 20
-9222.487597508758
 30
0.0
 11
-8683.2727703601
 21
-9222.487597508758
 31
0.0
  0
ARC
  5
121
  8
VENUE
  6
CONTINUOUS
 62
     7
 10
-7783.272770360141
 20
-11022.48759750876
 30
0.0
 40
900.0
 50
90.0
 51
180.0
  0
ARC
  5
123
  8
VENUE
  6
CONTINUOUS
 62
     7
 10
-7783.272770360141
 20
-9222.487597508758
 30
0.0
 40
899.9999999999582
 50
180.0
 51
270.0
  0
LINE
  5
124
  8
VENUE
  6
CONTINUOUS
 62
     7
 10
-7783.272770360142
 20
-5042.487597508754
 30
0.0
 11
-8683.2727703601
 21
-5042.487597508754
 31
0.0
  0
LINE
  5
125
  8
VENUE
  6
CONTINUOUS
 62
     7
 10
-7783.272770360142
 20
-3242.487597508764
 30
0.0
 11
-8683.2727703601
 21
-3242.487597508764
 31
0.0
  0
ARC
  5
127
  8
VENUE
  6
CONTINUOUS
 62
     7
 10
-7783.272770360142
 20
-5042.487597508755
 30
0.0
 40
900.0000000000009
 50
90.0
 51
180.0
  0
ARC
  5
129
  8
VENUE
  6
CONTINUOUS
 62
     7
 10
-7783.272770360142
 20
-3242.487597508764
 30
0.0
 40
899.9999999999573
 50
180.0
 51
270.0
  0
LINE
  5
12A
  8
VENUE
  6
CONTINUOUS
 62
     7
 10
7800.727229639875
 20
2707.512402491236
 30
0.0
 11
7800.727229639875
 21
-8455.487597508758
 31
0.0
  0
LINE
  5
12B
  8
VENUE
  6
CONTINUOUS
 62
     7
 10
6650.727229639858
 20
-455.487597508759
 30
0.0
 11
6650.727229639858
 21
-6205.487597508754
 31
0.0
  0
LINE
  5
12C
  8
VENUE
  6
CONTINUOUS
 62
     7
 10
6850.727229639858
 20
-455.487597508759
 30
0.0
 11
6850.727229639858
 21
-6205.487597508754
 31
0.0
  0
LINE
  5
12D
  8
VENUE
  6
CONTINUOUS
 62
     7
 10
7500.727229639861
 20
-455.487597508759
 30
0.0
 11
7500.727229639861
 21
-6205.487597508754
 31
0.0
  0
LINE
  5
12E
  8
VENUE
  6
CONTINUOUS
 62
     7
 10
7800.727229639875
 20
-8655.487597508758
 30
0.0
 11
7800.727229639875
 21
-13755.48759750876
 31
0.0
  0
LINE
  5
12F
  8
VENUE
  6
CONTINUOUS
 62
     7
 10
7500.727229639861
 20
-8605.487597508758
 30
0.0
 11
7500.727229639861
 21
-8655.487597508758
 31
0.0
  0
LINE
  5
130
  8
VENUE
  6
CONTINUOUS
 62
     7
 10
7500.727229639861
 20
-455.487597508759
 30
0.0
 11
6850.727229639858
 21
-455.487597508759
 31
0.0
  0
LINE
  5
131
  8
VENUE
  6
CONTINUOUS
 62
     7
 10
6650.727229639858
 20
-455.487597508759
 30
0.0
 11
6496.727229639858
 21
-455.487597508759
 31
0.0
  0
LINE
  5
132
  8
VENUE
  6
CONTINUOUS
 62
     7
 10
6500.727229639858
 20
844.5124024912421
 30
0.0
 11
7500.727229639861
 21
844.5124024912421
 31
0.0
  0
LINE
  5
133
  8
VENUE
  6
CONTINUOUS
 62
     7
 10
6500.727229639858
 20
844.5124024912421
 30
0.0
 11
6500.727229639858
 21
-455.487597508759
 31
0.0
  0
LINE
  5
134
  8
VENUE
  6
CONTINUOUS
 62
     7
 10
6850.727229639858
 20
7244.512402491246
 30
0.0
 11
7500.727229639861
 21
7244.512402491246
 31
0.0
  0
LINE
  5
135
  8
VENUE
  6
CONTINUOUS
 62
     7
 10
6500.727229639858
 20
7244.512402491246
 30
0.0
 11
6650.727229639858
 21
7244.512402491246
 31
0.0
  0
LINE
  5
136
  8
VENUE
  6
CONTINUOUS
 62
     7
 10
7500.727229639861
 20
5894.512402491246
 30
0.0
 11
6850.727229639858
 21
5894.512402491246
 31
0.0
  0
LINE
  5
137
  8
VENUE
  6
CONTINUOUS
 62
     7
 10
6650.727229639858
 20
5894.512402491246
 30
0.0
 11
6500.727229639858
 21
5894.512402491246
 31
0.0
  0
LINE
  5
138
  8
VENUE
  6
CONTINUOUS
 62
     7
 10
6500.727229639858
 20
-7505.48759750875
 30
0.0
 11
6500.727229639858
 21
-6205.487597508754
 31
0.0
  0
LINE
  5
139
  8
VENUE
  6
CONTINUOUS
 62
     7
 10
6500.727229639858
 20
-7505.48759750875
 30
0.0
 11
6650.727229639858
 21
-7505.48759750875
 31
0.0
  0
LINE
  5
13A
  8
VENUE
  6
CONTINUOUS
 62
     7
 10
6500.727229639858
 20
-6205.487597508754
 30
0.0
 11
6650.727229639858
 21
-6205.487597508754
 31
0.0
  0
LINE
  5
13B
  8
VENUE
  6
CONTINUOUS
 62
     7
 10
6850.727229639858
 20
-6205.487597508754
 30
0.0
 11
7500.727229639861
 21
-6205.487597508754
 31
0.0
  0
LINE
  5
13C
  8
VENUE
  6
CONTINUOUS
 62
     7
 10
-7503.272770360142
 20
-7505.48759750875
 30
0.0
 11
-6783.272770360142
 21
-7505.48759750875
 31
0.0
  0
LINE
  5
13D
  8
VENUE
  6
CONTINUOUS
 62
     7
 10
-6583.272770360142
 20
-7505.48759750875
 30
0.0
 11
-6483.272770360142
 21
-7505.48759750875
 31
0.0
  0
LINE
  5
13E
  8
VENUE
  6
CONTINUOUS
 62
     7
 10
-7503.272770360142
 20
-6205.487597508754
 30
0.0
 11
-6783.272770360142
 21
-6205.487597508754
 31
0.0
  0
LINE
  5
13F
  8
VENUE
  6
CONTINUOUS
 62
     7
 10
-6583.272770360142
 20
-6205.487597508754
 30
0.0
 11
-6483.272770360142
 21
-6205.487597508754
 31
0.0
  0
LINE
  5
140
  8
VENUE
  6
CONTINUOUS
 62
     7
 10
6650.727229639858
 20
-7505.48759750875
 30
0.0
 11
6650.727229639858
 21
-8605.487597508758
 31
0.0
  0
LINE
  5
141
  8
VENUE
  6
CONTINUOUS
 62
     7
 10
6650.727229639858
 20
-8605.487597508758
 30
0.0
 11
7500.727229639861
 21
-8605.487597508758
 31
0.0
  0
LINE
  5
142
  8
VENUE
  6
CONTINUOUS
 62
     7
 10
6850.727229639858
 20
-7505.48759750875
 30
0.0
 11
6850.727229639858
 21
-8455.487597508758
 31
0.0
  0
LINE
  5
143
  8
VENUE
  6
CONTINUOUS
 62
     7
 10
6850.727229639858
 20
-7505.48759750875
 30
0.0
 11
7500.727229639861
 21
-7505.48759750875
 31
0.0
  0
LINE
  5
144
  8
VENUE
  6
CONTINUOUS
 62
     7
 10
6850.727229639858
 20
-8455.487597508758
 30
0.0
 11
7500.727229639861
 21
-8455.487597508758
 31
0.0
  0
LINE
  5
145
  8
VENUE
  6
CONTINUOUS
 62
     7
 10
6650.727229639858
 20
-11205.48759750876
 30
0.0
 11
6650.727229639858
 21
-12455.48759750876
 31
0.0
  0
LINE
  5
146
  8
VENUE
  6
CONTINUOUS
 62
     7
 10
6650.727229639858
 20
-11205.48759750876
 30
0.0
 11
7800.727229639875
 21
-11205.48759750876
 31
0.0
  0
LINE
  5
147
  8
VENUE
  6
CONTINUOUS
 62
     7
 10
6850.727229639858
 20
-11355.48759750876
 30
0.0
 11
6850.727229639858
 21
-12455.48759750876
 31
0.0
  0
LINE
  5
148
  8
VENUE
  6
CONTINUOUS
 62
     7
 10
6850.727229639858
 20
-11355.48759750876
 30
0.0
 11
7500.727229639861
 21
-11355.48759750876
 31
0.0
  0
LINE
  5
149
  8
VENUE
  6
CONTINUOUS
 62
     7
 10
7500.727229639861
 20
-12455.48759750876
 30
0.0
 11
7500.727229639861
 21
-11355.48759750876
 31
0.0
  0
LINE
  5
14A
  8
VENUE
  6
CONTINUOUS
 62
     7
 10
7500.727229639861
 20
-8655.487597508758
 30
0.0
 11
8000.727229639887
 21
-8655.487597508758
 31
0.0
  0
LINE
  5
14B
  8
VENUE
  6
CONTINUOUS
 62
     7
 10
7500.727229639861
 20
-8455.487597508758
 30
0.0
 11
7500.727229639861
 21
-7505.48759750875
 31
0.0
  0
LINE
  5
14C
  8
VENUE
  6
CONTINUOUS
 62
     7
 10
8000.727229639887
 20
-8455.487597508758
 30
0.0
 11
8000.727229639887
 21
-8655.487597508758
 31
0.0
  0
LINE
  5
14D
  8
VENUE
  6
CONTINUOUS
 62
     7
 10
7800.727229639875
 20
-4255.487597508754
 30
0.0
 11
7800.727229639875
 21
-1855.487597508766
 31
0.0
  0
LINE
  5
14E
  8
VENUE
  6
CONTINUOUS
 62
     7
 10
-7783.272770360142
 20
-1455.487597508764
 30
0.0
 11
-7783.272770360142
 21
2707.512402491236
 31
0.0
  0
POLYLINE
  5
150
  8
VENUE
  6
CONTINUOUS
 62
     7
 66
     1
 10
0.0
 20
0.0
 30
0.0
 70
   129
  0
VERTEX
  5
234
  8
VENUE
  6
CONTINUOUS
 62
     7
 10
-7783.272770360142
 20
-11022.48759750876
 30
0.0
  0
VERTEX
  5
235
  8
VENUE
  6
CONTINUOUS
 62
     7
 10
-7493.272770360142
 20
-11022.48759750876
 30
0.0
  0
VERTEX
  5
236
  8
VENUE
  6
CONTINUOUS
 62
     7
 10
-7493.272770360142
 20
-11072.48759750876
 30
0.0
  0
VERTEX
  5
237
  8
VENUE
  6
CONTINUOUS
 62
     7
 10
-6583.272770360142
 20
-11072.48759750876
 30
0.0
  0
VERTEX
  5
238
  8
VENUE
  6
CONTINUOUS
 62
     7
 10
-6583.272770360142
 20
-12455.48759750876
 30
0.0
  0
VERTEX
  5
239
  8
VENUE
  6
CONTINUOUS
 62
     7
 10
-6783.272770360142
 20
-12455.48759750876
 30
0.0
  0
VERTEX
  5
23A
  8
VENUE
  6
CONTINUOUS
 62
     7
 10
-6783.272770360142
 20
-11272.48759750876
 30
0.0
  0
VERTEX
  5
23B
  8
VENUE
  6
CONTINUOUS
 62
     7
 10
-7503.272770360142
 20
-11272.48759750876
 30
0.0
  0
VERTEX
  5
23C
  8
VENUE
  6
CONTINUOUS
 62
     7
 10
-7503.272770360142
 20
-12455.48759750876
 30
0.0
  0
VERTEX
  5
23D
  8
VENUE
  6
CONTINUOUS
 62
     7
 10
-6483.272770360142
 20
-12455.48759750876
 30
0.0
  0
VERTEX
  5
23E
  8
VENUE
  6
CONTINUOUS
 62
     7
 10
-6483.272770360142
 20
-13755.48759750876
 30
0.0
  0
VERTEX
  5
23F
  8
VENUE
  6
CONTINUOUS
 62
     7
 10
-7983.272770360142
 20
-13755.48759750876
 30
0.0
  0
VERTEX
  5
240
  8
VENUE
  6
CONTINUOUS
 62
     7
 10
-7983.272770360142
 20
-12605.48759750876
 30
0.0
  0
VERTEX
  5
241
  8
VENUE
  6
CONTINUOUS
 62
     7
 10
-7783.272770360142
 20
-12605.48759750876
 30
0.0
  0
SEQEND
  5
286
  8
VENUE
  6
CONTINUOUS
 62
     7
  0
POLYLINE
  5
152
  8
VENUE
  6
CONTINUOUS
 62
     7
 66
     1
 10
0.0
 20
0.0
 30
0.0
 70
   129
  0
VERTEX
  5
242
  8
VENUE
  6
CONTINUOUS
 62
     7
 10
-7783.272770360142
 20
-5042.487597508754
 30
0.0
  0
VERTEX
  5
243
  8
VENUE
  6
CONTINUOUS
 62
     7
 10
-6583.272770360142
 20
-5042.487597508754
 30
0.0
  0
VERTEX
  5
244
  8
VENUE
  6
CONTINUOUS
 62
     7
 10
-6583.272770360142
 20
-6205.487597508754
 30
0.0
  0
VERTEX
  5
245
  8
VENUE
  6
CONTINUOUS
 62
     7
 10
-6783.272770360142
 20
-6205.487597508754
 30
0.0
  0
VERTEX
  5
246
  8
VENUE
  6
CONTINUOUS
 62
     7
 10
-6783.272770360142
 20
-5242.487597508754
 30
0.0
  0
VERTEX
  5
247
  8
VENUE
  6
CONTINUOUS
 62
     7
 10
-7503.272770360142
 20
-5242.487597508754
 30
0.0
  0
VERTEX
  5
248
  8
VENUE
  6
CONTINUOUS
 62
     7
 10
-7503.272770360142
 20
-6205.487597508754
 30
0.0
  0
VERTEX
  5
249
  8
VENUE
  6
CONTINUOUS
 62
     7
 10
-6483.272770360142
 20
-6205.487597508754
 30
0.0
  0
VERTEX
  5
24A
  8
VENUE
  6
CONTINUOUS
 62
     7
 10
-6483.272770360142
 20
-7505.48759750875
 30
0.0
  0
VERTEX
  5
24B
  8
VENUE
  6
CONTINUOUS
 62
     7
 10
-7503.272770360142
 20
-7505.48759750875
 30
0.0
  0
VERTEX
  5
24C
  8
VENUE
  6
CONTINUOUS
 62
     7
 10
-7503.272770360142
 20
-9022.487597508758
 30
0.0
  0
VERTEX
  5
24D
  8
VENUE
  6
CONTINUOUS
 62
     7
 10
-6783.272770360142
 20
-9022.487597508758
 30
0.0
  0
VERTEX
  5
24E
  8
VENUE
  6
CONTINUOUS
 62
     7
 10
-6783.272770360142
 20
-7505.48759750875
 30
0.0
  0
VERTEX
  5
24F
  8
VENUE
  6
CONTINUOUS
 62
     7
 10
-6583.272770360142
 20
-7505.48759750875
 30
0.0
  0
VERTEX
  5
250
  8
VENUE
  6
CONTINUOUS
 62
     7
 10
-6583.272770360142
 20
-9172.487597508758
 30
0.0
  0
VERTEX
  5
251
  8
VENUE
  6
CONTINUOUS
 62
     7
 10
-7493.272770360142
 20
-9172.487597508758
 30
0.0
  0
VERTEX
  5
252
  8
VENUE
  6
CONTINUOUS
 62
     7
 10
-7493.272770360142
 20
-9222.487597508758
 30
0.0
  0
VERTEX
  5
253
  8
VENUE
  6
CONTINUOUS
 62
     7
 10
-7783.272770360142
 20
-9222.487597508758
 30
0.0
  0
SEQEND
  5
287
  8
VENUE
  6
CONTINUOUS
 62
     7
  0
LINE
  5
153
  8
VENUE
  6
CONTINUOUS
 62
     7
 10
-7783.272770360142
 20
-1455.487597508764
 30
0.0
 11
-7783.272770360142
 21
-3242.487597508764
 31
0.0
  0
LINE
  5
154
  8
VENUE
  6
CONTINUOUS
 62
     7
 10
7800.727229639875
 20
894.5124024912423
 30
0.0
 11
7500.727229639861
 21
894.5124024912423
 31
0.0
  0
LINE
  5
155
  8
VENUE
  6
CONTINUOUS
 62
     7
 10
7500.727229639861
 20
894.5124024912423
 30
0.0
 11
7500.727229639861
 21
844.5124024912421
 31
0.0
  0
POLYLINE
  5
157
  8
VENUE
  6
CONTINUOUS
 62
     7
 66
     1
 10
0.0
 20
0.0
 30
0.0
 70
   129
  0
VERTEX
  5
254
  8
VENUE
  6
CONTINUOUS
 62
     7
 10
7800.727229639875
 20
-11205.48759750876
 30
0.0
  0
VERTEX
  5
255
  8
VENUE
  6
CONTINUOUS
 62
     7
 10
6650.727229639858
 20
-11205.48759750876
 30
0.0
  0
VERTEX
  5
256
  8
VENUE
  6
CONTINUOUS
 62
     7
 10
6650.727229639858
 20
-12455.48759750876
 30
0.0
  0
VERTEX
  5
257
  8
VENUE
  6
CONTINUOUS
 62
     7
 10
6850.727229639858
 20
-12455.48759750876
 30
0.0
  0
VERTEX
  5
258
  8
VENUE
  6
CONTINUOUS
 62
     7
 10
6850.727229639858
 20
-11355.48759750876
 30
0.0
  0
VERTEX
  5
259
  8
VENUE
  6
CONTINUOUS
 62
     7
 10
7500.727229639861
 20
-11355.48759750876
 30
0.0
  0
VERTEX
  5
25A
  8
VENUE
  6
CONTINUOUS
 62
     7
 10
7500.727229639861
 20
-12455.48759750876
 30
0.0
  0
VERTEX
  5
25B
  8
VENUE
  6
CONTINUOUS
 62
     7
 10
6500.727229639858
 20
-12455.48759750876
 30
0.0
  0
VERTEX
  5
25C
  8
VENUE
  6
CONTINUOUS
 62
     7
 10
6500.727229639858
 20
-13755.48759750876
 30
0.0
  0
VERTEX
  5
25D
  8
VENUE
  6
CONTINUOUS
 62
     7
 10
7016.727229639858
 20
-13755.48759750876
 30
0.0
  0
VERTEX
  5
25E
  8
VENUE
  6
CONTINUOUS
 62
     7
 10
7016.727229639858
 20
-14055.48759750876
 30
0.0
  0
VERTEX
  5
25F
  8
VENUE
  6
CONTINUOUS
 62
     7
 10
7216.727229639858
 20
-14055.48759750876
 30
0.0
  0
VERTEX
  5
260
  8
VENUE
  6
CONTINUOUS
 62
     7
 10
7216.727229639858
 20
-13755.48759750876
 30
0.0
  0
VERTEX
  5
261
  8
VENUE
  6
CONTINUOUS
 62
     7
 10
7800.727229639875
 20
-13755.48759750876
 30
0.0
  0
SEQEND
  5
288
  8
VENUE
  6
CONTINUOUS
 62
     7
  0
POLYLINE
  5
159
  8
VENUE
  6
CONTINUOUS
 62
     7
 66
     1
 10
0.0
 20
0.0
 30
0.0
 70
   129
  0
VERTEX
  5
262
  8
VENUE
  6
CONTINUOUS
 62
     7
 10
7800.727229639875
 20
10707.51240249124
 30
0.0
  0
VERTEX
  5
263
  8
VENUE
  6
CONTINUOUS
 62
     7
 10
7550.727229639862
 20
10707.51240249124
 30
0.0
  0
VERTEX
  5
264
  8
VENUE
  6
CONTINUOUS
 62
     7
 10
7550.727229639862
 20
10307.51240249124
 30
0.0
  0
VERTEX
  5
265
  8
VENUE
  6
CONTINUOUS
 62
     7
 10
6650.727229639858
 20
10307.51240249124
 30
0.0
  0
VERTEX
  5
266
  8
VENUE
  6
CONTINUOUS
 62
     7
 10
6650.727229639858
 20
10057.51240249124
 30
0.0
  0
VERTEX
  5
267
  8
VENUE
  6
CONTINUOUS
 62
     7
 10
6100.727229639858
 20
10057.51240249124
 30
0.0
  0
VERTEX
  5
268
  8
VENUE
  6
CONTINUOUS
 62
     7
 10
6100.727229639858
 20
9757.512402491238
 30
0.0
  0
VERTEX
  5
269
  8
VENUE
  6
CONTINUOUS
 62
     7
 10
6650.727229639858
 20
9757.512402491238
 30
0.0
  0
VERTEX
  5
26A
  8
VENUE
  6
CONTINUOUS
 62
     7
 10
6650.727229639858
 20
7244.512402491246
 30
0.0
  0
VERTEX
  5
26B
  8
VENUE
  6
CONTINUOUS
 62
     7
 10
6850.727229639858
 20
7244.512402491246
 30
0.0
  0
VERTEX
  5
26C
  8
VENUE
  6
CONTINUOUS
 62
     7
 10
6850.727229639858
 20
9507.512402491235
 30
0.0
  0
VERTEX
  5
26D
  8
VENUE
  6
CONTINUOUS
 62
     7
 10
7500.727229639861
 20
9507.512402491235
 30
0.0
  0
VERTEX
  5
26E
  8
VENUE
  6
CONTINUOUS
 62
     7
 10
7500.727229639861
 20
7244.512402491246
 30
0.0
  0
VERTEX
  5
26F
  8
VENUE
  6
CONTINUOUS
 62
     7
 10
6500.727229639858
 20
7244.512402491246
 30
0.0
  0
VERTEX
  5
270
  8
VENUE
  6
CONTINUOUS
 62
     7
 10
6500.727229639858
 20
5894.512402491246
 30
0.0
  0
VERTEX
  5
271
  8
VENUE
  6
CONTINUOUS
 62
     7
 10
7500.727229639861
 20
5894.512402491246
 30
0.0
  0
VERTEX
  5
272
  8
VENUE
  6
CONTINUOUS
 62
     7
 10
7500.727229639861
 20
2957.512402491234
 30
0.0
  0
VERTEX
  5
273
  8
VENUE
  6
CONTINUOUS
 62
     7
 10
6850.727229639858
 20
2957.512402491234
 30
0.0
  0
VERTEX
  5
274
  8
VENUE
  6
CONTINUOUS
 62
     7
 10
6850.727229639858
 20
5894.512402491246
 30
0.0
  0
VERTEX
  5
275
  8
VENUE
  6
CONTINUOUS
 62
     7
 10
6650.727229639858
 20
5894.512402491246
 30
0.0
  0
VERTEX
  5
276
  8
VENUE
  6
CONTINUOUS
 62
     7
 10
6650.727229639858
 20
2757.512402491236
 30
0.0
  0
VERTEX
  5
277
  8
VENUE
  6
CONTINUOUS
 62
     7
 10
7500.727229639861
 20
2757.512402491236
 30
0.0
  0
VERTEX
  5
278
  8
VENUE
  6
CONTINUOUS
 62
     7
 10
7500.727229639861
 20
2707.512402491236
 30
0.0
  0
VERTEX
  5
279
  8
VENUE
  6
CONTINUOUS
 62
     7
 10
7800.727229639875
 20
2707.512402491236
 30
0.0
  0
SEQEND
  5
289
  8
VENUE
  6
CONTINUOUS
 62
     7
  0
POLYLINE
  5
15B
  8
VENUE
  6
CONTINUOUS
 62
     7
 66
     1
 10
0.0
 20
0.0
 30
0.0
 70
   129
  0
VERTEX
  5
27A
  8
VENUE
  6
CONTINUOUS
 62
     7
 10
-5183.272770360141
 20
10057.51240249124
 30
0.0
  0
VERTEX
  5
27B
  8
VENUE
  6
CONTINUOUS
 62
     7
 10
-341.2727703601259
 20
10057.51240249124
 30
0.0
  0
VERTEX
  5
27C
  8
VENUE
  6
CONTINUOUS
 62
     7
 10
-341.2727703601259
 20
10307.51240249124
 30
0.0
  0
VERTEX
  5
27D
  8
VENUE
  6
CONTINUOUS
 62
     7
 10
458.7272296398747
 20
10307.51240249124
 30
0.0
  0
VERTEX
  5
27E
  8
VENUE
  6
CONTINUOUS
 62
     7
 10
458.7272296398747
 20
10057.51240249124
 30
0.0
  0
VERTEX
  5
27F
  8
VENUE
  6
CONTINUOUS
 62
     7
 10
5300.727229639858
 20
10057.51240249124
 30
0.0
  0
VERTEX
  5
280
  8
VENUE
  6
CONTINUOUS
 62
     7
 10
5300.727229639858
 20
9757.512402491238
 30
0.0
  0
VERTEX
  5
281
  8
VENUE
  6
CONTINUOUS
 62
     7
 10
458.7272296398747
 20
9757.512402491238
 30
0.0
  0
VERTEX
  5
282
  8
VENUE
  6
CONTINUOUS
 62
     7
 10
458.7272296398747
 20
9507.512402491235
 30
0.0
  0
VERTEX
  5
283
  8
VENUE
  6
CONTINUOUS
 62
     7
 10
-341.2727703601259
 20
9507.512402491235
 30
0.0
  0
VERTEX
  5
284
  8
VENUE
  6
CONTINUOUS
 62
     7
 10
-341.2727703601259
 20
9757.512402491238
 30
0.0
  0
VERTEX
  5
285
  8
VENUE
  6
CONTINUOUS
 62
     7
 10
-5183.272770360141
 20
9757.512402491238
 30
0.0
  0
SEQEND
  5
28A
  8
VENUE
  6
CONTINUOUS
 62
     7
  0
LINE
  5
15C
  8
VENUE
  6
CONTINUOUS
 62
     7
 10
-8083.272770360142
 20
-1155.48759750876
 30
0.0
 11
-8083.272770360142
 21
10583.62273442204
 31
0.0
  0
LINE
  5
15D
  8
VENUE
  6
CONTINUOUS
 62
     7
 10
-6583.272770360142
 20
-3242.487597508764
 30
0.0
 11
-7783.272770360142
 21
-3242.487597508764
 31
0.0
  0
LINE
  5
15E
  8
VENUE
  6
CONTINUOUS
 62
     7
 10
-7783.272770360142
 20
844.5124024912421
 30
0.0
 11
-6483.272770360142
 21
844.5124024912421
 31
0.0
  0
LINE
  5
15F
  8
VENUE
  6
CONTINUOUS
 62
     7
 10
-6483.272770360142
 20
844.5124024912421
 30
0.0
 11
-7783.272770360142
 21
844.5124024912421
 31
0.0
  0
LINE
  5
160
  8
VENUE
  6
CONTINUOUS
 62
     7
 10
-6583.272770360142
 20
-3242.487597508764
 30
0.0
 11
-7783.272770360142
 21
-3242.487597508764
 31
0.0
  0
LINE
  5
161
  8
VENUE
  6
CONTINUOUS
 62
     7
 10
-6483.272770360142
 20
844.5124024912421
 30
0.0
 11
-6483.272770360142
 21
-455.487597508759
 31
0.0
  0
LINE
  5
162
  8
VENUE
  6
CONTINUOUS
 62
     7
 10
-6483.272770360142
 20
844.5124024912421
 30
0.0
 11
-6483.272770360142
 21
-455.487597508759
 31
0.0
  0
LINE
  5
163
  8
VENUE
  6
CONTINUOUS
 62
     7
 10
-6583.272770360142
 20
-455.487597508759
 30
0.0
 11
-6583.272770360142
 21
-3242.487597508764
 31
0.0
  0
LINE
  5
164
  8
VENUE
  6
CONTINUOUS
 62
     7
 10
-6783.272770360142
 20
-3042.487597508766
 30
0.0
 11
-6783.272770360142
 21
-455.487597508759
 31
0.0
  0
LINE
  5
165
  8
VENUE
  6
CONTINUOUS
 62
     7
 10
-7503.272770360142
 20
-3042.487597508766
 30
0.0
 11
-6783.272770360142
 21
-3042.487597508766
 31
0.0
  0
LINE
  5
166
  8
VENUE
  6
CONTINUOUS
 62
     7
 10
-6783.272770360142
 20
-3042.487597508766
 30
0.0
 11
-7503.272770360142
 21
-3042.487597508766
 31
0.0
  0
LINE
  5
167
  8
VENUE
  6
CONTINUOUS
 62
     7
 10
-6783.272770360142
 20
-455.487597508759
 30
0.0
 11
-7503.272770360142
 21
-455.487597508759
 31
0.0
  0
LINE
  5
168
  8
VENUE
  6
CONTINUOUS
 62
     7
 10
-6783.272770360142
 20
-455.487597508759
 30
0.0
 11
-7503.272770360142
 21
-455.487597508759
 31
0.0
  0
LINE
  5
169
  8
VENUE
  6
CONTINUOUS
 62
     7
 10
-6483.272770360142
 20
-455.487597508759
 30
0.0
 11
-6583.272770360142
 21
-455.487597508759
 31
0.0
  0
LINE
  5
16A
  8
VENUE
  6
CONTINUOUS
 62
     7
 10
-6483.272770360142
 20
-455.487597508759
 30
0.0
 11
-7783.272770360142
 21
-455.487597508759
 31
0.0
  0
LINE
  5
16B
  8
VENUE
  6
CONTINUOUS
 62
     7
 10
-7503.272770360142
 20
-455.487597508759
 30
0.0
 11
-7503.272770360142
 21
-3042.487597508766
 31
0.0
  0
LINE
  5
16C
  8
VENUE
  6
CONTINUOUS
 62
     7
 10
-7503.272770360142
 20
-455.487597508759
 30
0.0
 11
-7503.272770360142
 21
-3042.487597508766
 31
0.0
  0
LINE
  5
16D
  8
VENUE
  6
CONTINUOUS
 62
     7
 10
-5183.272770360141
 20
9357.512402491231
 30
0.0
 11
-5183.272770360141
 21
9257.512402491233
 31
0.0
  0
LINE
  5
16E
  8
VENUE
  6
CONTINUOUS
 62
     7
 10
4916.727229639858
 20
9357.512402491231
 30
0.0
 11
4916.727229639858
 21
9257.512402491233
 31
0.0
  0
LINE
  5
16F
  8
VENUE
  6
CONTINUOUS
 62
     7
 10
4916.727229639858
 20
9357.512402491231
 30
0.0
 11
-5183.272770360141
 21
9357.512402491231
 31
0.0
  0
LINE
  5
170
  8
VENUE
  6
CONTINUOUS
 62
     7
 10
4916.727229639858
 20
9257.512402491233
 30
0.0
 11
-5183.272770360141
 21
9257.512402491233
 31
0.0
  0
LINE
  5
171
  8
VENUE
  6
CONTINUOUS
 62
     7
 10
-4683.272770360139
 20
9057.512402491227
 30
0.0
 11
-4683.272770360139
 21
8957.512402491237
 31
0.0
  0
LINE
  5
172
  8
VENUE
  6
CONTINUOUS
 62
     7
 10
4416.727229639858
 20
9057.512402491235
 30
0.0
 11
-4683.272770360139
 21
9057.512402491235
 31
0.0
  0
LINE
  5
173
  8
VENUE
  6
CONTINUOUS
 62
     7
 10
4416.727229639858
 20
9057.512402491235
 30
0.0
 11
4416.727229639858
 21
8957.512402491237
 31
0.0
  0
LINE
  5
174
  8
VENUE
  6
CONTINUOUS
 62
     7
 10
4416.727229639856
 20
8957.512402491237
 30
0.0
 11
-4683.272770360139
 21
8957.512402491237
 31
0.0
  0
ENDBLK
  8
0
  0
BLOCK
  8
0
  2
グループ-1
 70
     0
 10
0.0
 20
0.0
 30
0.0
  0
LINE
  5
175
  8
0
  6
CONTINUOUS
 62
   251
 10
-4782.457731696327
 20
7848.162259259436
 30
0.0
 11
-1992.457731696338
 21
7848.162259259436
 31
0.0
  0
LINE
  5
176
  8
0
  6
CONTINUOUS
 62
   251
 10
-4782.457731696327
 20
6375.629480189477
 30
0.0
 11
-1992.457731696338
 21
6375.629480189477
 31
0.0
  0
LINE
  5
177
  8
0
  6
CONTINUOUS
 62
   251
 10
-4782.457731696327
 20
7848.162259259436
 30
0.0
 11
-4782.457731696327
 21
6408.162259259436
 31
0.0
  0
LINE
  5
178
  8
0
  6
CONTINUOUS
 62
   251
 10
-1999.998369886947
 20
7848.162259259436
 30
0.0
 11
-1999.998369886947
 21
6370.0
 31
0.0
  0
LINE
  5
179
  8
0
  6
CONTINUOUS
 62
   251
 10
-4782.457731696327
 20
7148.670695754749
 30
0.0
 11
-1992.457731696338
 21
7148.670695754749
 31
0.0
  0
LINE
  5
17A
  8
0
  6
CONTINUOUS
 62
   251
 10
-3333.793225968924
 20
6375.629480189477
 30
0.0
 11
-3333.793225968924
 21
7848.162259259436
 31
0.0
  0
ENDBLK
  8
0
  0
BLOCK
  8
0
  2
グループ-2
 70
     0
 10
0.0
 20
0.0
 30
0.0
  0
LINE
  5
17B
  8
0
  6
CONTINUOUS
 62
   251
 10
-1358.652408954796
 20
7848.162259259436
 30
0.0
 11
1431.347591045204
 21
7848.162259259436
 31
0.0
  0
LINE
  5
17C
  8
0
  6
CONTINUOUS
 62
   251
 10
-1358.652408954796
 20
6375.629480189477
 30
0.0
 11
1431.347591045204
 21
6375.629480189477
 31
0.0
  0
LINE
  5
17D
  8
0
  6
CONTINUOUS
 62
   251
 10
-1358.652408954796
 20
7848.162259259436
 30
0.0
 11
-1358.652408954796
 21
6370.0
 31
0.0
  0
LINE
  5
17E
  8
0
  6
CONTINUOUS
 62
   251
 10
1429.550435336868
 20
7848.162259259436
 30
0.0
 11
1429.550435336868
 21
6370.0
 31
0.0
  0
LINE
  5
17F
  8
0
  6
CONTINUOUS
 62
   251
 10
-1358.652408954796
 20
7148.670695754749
 30
0.0
 11
1431.347591045204
 21
7148.670695754749
 31
0.0
  0
ENDBLK
  8
0
  0
BLOCK
  8
0
  2
グループ-3
 70
     0
 10
0.0
 20
0.0
 30
0.0
  0
LINE
  5
180
  8
0
  6
CONTINUOUS
 62
   251
 10
-4745.163768166153
 20
2412.317892916749
 30
0.0
 11
-1996.617383102056
 21
2412.317892916749
 31
0.0
  0
LINE
  5
181
  8
0
  6
CONTINUOUS
 62
   251
 10
-1996.617383102056
 20
2412.317892916749
 30
0.0
 11
-1996.617383102056
 21
-59.85547162849142
 31
0.0
  0
LINE
  5
182
  8
0
  6
CONTINUOUS
 62
   251
 10
-1996.617383102056
 20
-59.85547162849142
 30
0.0
 11
-4726.571612681013
 21
-59.85547162849142
 31
0.0
  0
LINE
  5
183
  8
0
  6
CONTINUOUS
 62
   251
 10
-4745.163768166153
 20
-59.85547162849142
 30
0.0
 11
-4745.163768166153
 21
2412.317892916749
 31
0.0
  0
LINE
  5
184
  8
0
  6
CONTINUOUS
 62
   251
 10
-4745.163768166153
 20
1176.231210644132
 30
0.0
 11
-1996.617383102056
 21
1176.231210644132
 31
0.0
  0
LINE
  5
185
  8
0
  6
CONTINUOUS
 62
   251
 10
-3352.298420148966
 20
-59.85547162849142
 30
0.0
 11
-3352.298420148966
 21
2412.317892916749
 31
0.0
  0
ENDBLK
  8
0
  0
BLOCK
  8
0
  2
グループ-4
 70
     0
 10
0.0
 20
0.0
 30
0.0
  0
LINE
  5
186
  8
0
  6
CONTINUOUS
 62
   251
 10
-1392.769563850343
 20
2394.154345775514
 30
0.0
 11
1355.776821213754
 21
2394.154345775514
 31
0.0
  0
LINE
  5
187
  8
0
  6
CONTINUOUS
 62
   251
 10
1355.776821213754
 20
2394.154345775514
 30
0.0
 11
1355.776821213754
 21
-78.01901876972592
 31
0.0
  0
LINE
  5
188
  8
0
  6
CONTINUOUS
 62
   251
 10
1355.776821213754
 20
-78.01901876972592
 30
0.0
 11
-1374.177408365203
 21
-78.01901876972592
 31
0.0
  0
LINE
  5
189
  8
0
  6
CONTINUOUS
 62
   251
 10
-1392.769563850343
 20
-78.01901876972592
 30
0.0
 11
-1392.769563850343
 21
2394.154345775514
 31
0.0
  0
LINE
  5
18A
  8
0
  6
CONTINUOUS
 62
   251
 10
-1392.769563850343
 20
1158.067663502898
 30
0.0
 11
1355.776821213754
 21
1158.067663502898
 31
0.0
  0
LINE
  5
18B
  8
0
  6
CONTINUOUS
 62
   251
 10
0.0957841668446839
 20
-78.01901876972592
 30
0.0
 11
0.0957841668446839
 21
2394.154345775514
 31
0.0
  0
ENDBLK
  8
0
  0
BLOCK
  8
0
  2
グループ-5
 70
     0
 10
0.0
 20
0.0
 30
0.0
  0
LINE
  5
18C
  8
0
  6
CONTINUOUS
 62
   251
 10
2063.535883626014
 20
2373.847819251714
 30
0.0
 11
4812.08226869011
 21
2373.847819251714
 31
0.0
  0
LINE
  5
18D
  8
0
  6
CONTINUOUS
 62
   251
 10
4812.08226869011
 20
2373.847819251714
 30
0.0
 11
4812.08226869011
 21
-98.32554529352647
 31
0.0
  0
LINE
  5
18E
  8
0
  6
CONTINUOUS
 62
   251
 10
4812.08226869011
 20
-98.32554529352647
 30
0.0
 11
2082.128039111154
 21
-98.32554529352647
 31
0.0
  0
LINE
  5
18F
  8
0
  6
CONTINUOUS
 62
   251
 10
2063.535883626014
 20
-98.32554529352647
 30
0.0
 11
2063.535883626014
 21
2373.847819251714
 31
0.0
  0
LINE
  5
190
  8
0
  6
CONTINUOUS
 62
   251
 10
2063.535883626014
 20
1137.761136979097
 30
0.0
 11
4812.08226869011
 21
1137.761136979097
 31
0.0
  0
LINE
  5
191
  8
0
  6
CONTINUOUS
 62
   251
 10
3456.401231643201
 20
-98.32554529352647
 30
0.0
 11
3456.401231643201
 21
2373.847819251714
 31
0.0
  0
ENDBLK
  8
0
  0
BLOCK
  8
0
  2
グループ-6
 70
     0
 10
0.0
 20
0.0
 30
0.0
  0
INSERT
  5
192
  8
0
 62
   251
  2
グループ-3
 10
0.0
 20
0.0
 30
0.0
  0
INSERT
  5
193
  8
0
 62
   251
  2
グループ-4
 10
0.0
 20
0.0
 30
0.0
  0
INSERT
  5
194
  8
0
 62
   251
  2
グループ-5
 10
0.0
 20
0.0
 30
0.0
  0
ENDBLK
  8
0
  0
BLOCK
  8
0
  2
グループ-7
 70
     0
 10
0.0
 20
0.0
 30
0.0
  0
LINE
  5
195
  8
0
  6
CONTINUOUS
 62
   251
 10
2036.187650588456
 20
7834.467762194565
 30
0.0
 11
4826.187650588445
 21
7834.467762194565
 31
0.0
  0
LINE
  5
196
  8
0
  6
CONTINUOUS
 62
   251
 10
2036.187650588456
 20
6361.934983124606
 30
0.0
 11
4826.187650588445
 21
6361.934983124606
 31
0.0
  0
LINE
  5
197
  8
0
  6
CONTINUOUS
 62
   251
 10
2036.187650588456
 20
7834.467762194565
 30
0.0
 11
2036.187650588456
 21
6394.467762194565
 31
0.0
  0
LINE
  5
198
  8
0
  6
CONTINUOUS
 62
   251
 10
4818.647012397836
 20
7834.467762194565
 30
0.0
 11
4818.647012397836
 21
6356.305502935129
 31
0.0
  0
LINE
  5
199
  8
0
  6
CONTINUOUS
 62
   251
 10
2036.187650588456
 20
7134.976198689878
 30
0.0
 11
4826.187650588445
 21
7134.976198689878
 31
0.0
  0
LINE
  5
19A
  8
0
  6
CONTINUOUS
 62
   251
 10
3484.852156315859
 20
6361.934983124606
 30
0.0
 11
3484.852156315859
 21
7834.467762194565
 31
0.0
  0
ENDBLK
  8
0
  0
BLOCK
  8
0
  2
グループ-8
 70
     0
 10
0.0
 20
0.0
 30
0.0
  0
LINE
  5
19B
  8
0
  6
CONTINUOUS
 62
   251
 10
-4710.0
 20
-639.9999999999995
 30
0.0
 11
-1964.32949191392
 21
-639.9999999999995
 31
0.0
  0
LINE
  5
19C
  8
0
  6
CONTINUOUS
 62
   251
 10
-1964.32949191392
 20
-639.9999999999995
 30
0.0
 11
-1964.32949191392
 21
-3315.0
 31
0.0
  0
LINE
  5
19D
  8
0
  6
CONTINUOUS
 62
   251
 10
-1964.32949191392
 20
-3315.0
 30
0.0
 11
-4691.427297980234
 21
-3315.0
 31
0.0
  0
LINE
  5
19E
  8
0
  6
CONTINUOUS
 62
   251
 10
-4710.0
 20
-3315.0
 30
0.0
 11
-4710.0
 21
-639.9999999999995
 31
0.0
  0
LINE
  5
19F
  8
0
  6
CONTINUOUS
 62
   251
 10
-4710.0
 20
-1977.499999999996
 30
0.0
 11
-1964.32949191392
 21
-1977.499999999996
 31
0.0
  0
LINE
  5
1A0
  8
0
  6
CONTINUOUS
 62
   251
 10
-3318.592043937194
 20
-3315.0
 30
0.0
 11
-3318.592043937194
 21
-639.9999999999995
 31
0.0
  0
ENDBLK
  8
0
  0
BLOCK
  8
0
  2
グループ-9
 70
     0
 10
0.0
 20
0.0
 30
0.0
  0
LINE
  5
1A1
  8
0
  6
CONTINUOUS
 62
   251
 10
-1361.113494650384
 20
-659.3210860806025
 30
0.0
 11
1384.557013435695
 21
-659.3210860806025
 31
0.0
  0
LINE
  5
1A2
  8
0
  6
CONTINUOUS
 62
   251
 10
1384.557013435695
 20
-659.3210860806025
 30
0.0
 11
1384.557013435695
 21
-3289.042803493188
 31
0.0
  0
LINE
  5
1A3
  8
0
  6
CONTINUOUS
 62
   251
 10
1384.557013435695
 20
-3289.042803493188
 30
0.0
 11
-1342.540792630618
 21
-3289.042803493188
 31
0.0
  0
LINE
  5
1A4
  8
0
  6
CONTINUOUS
 62
   251
 10
-1361.113494650384
 20
-3289.042803493188
 30
0.0
 11
-1361.113494650384
 21
-659.3210860806025
 31
0.0
  0
LINE
  5
1A5
  8
0
  6
CONTINUOUS
 62
   251
 10
-1361.113494650384
 20
-1974.181944786892
 30
0.0
 11
1384.557013435695
 21
-1974.181944786892
 31
0.0
  0
LINE
  5
1A6
  8
0
  6
CONTINUOUS
 62
   251
 10
30.29446141241988
 20
-3289.042803493188
 30
0.0
 11
30.29446141241988
 21
-659.3210860806025
 31
0.0
  0
ENDBLK
  8
0
  0
BLOCK
  8
0
  2
グループ-10
 70
     0
 10
0.0
 20
0.0
 30
0.0
  0
LINE
  5
1A7
  8
0
  6
CONTINUOUS
 62
   251
 10
2091.575528770185
 20
-680.921720797689
 30
0.0
 11
4837.246036856264
 21
-680.921720797689
 31
0.0
  0
LINE
  5
1A8
  8
0
  6
CONTINUOUS
 62
   251
 10
4837.246036856264
 20
-680.921720797689
 30
0.0
 11
4837.246036856264
 21
-3310.643438210275
 31
0.0
  0
LINE
  5
1A9
  8
0
  6
CONTINUOUS
 62
   251
 10
4837.246036856264
 20
-3310.643438210275
 30
0.0
 11
2110.148230789951
 21
-3310.643438210275
 31
0.0
  0
LINE
  5
1AA
  8
0
  6
CONTINUOUS
 62
   251
 10
2091.575528770185
 20
-3310.643438210275
 30
0.0
 11
2091.575528770185
 21
-680.921720797689
 31
0.0
  0
LINE
  5
1AB
  8
0
  6
CONTINUOUS
 62
   251
 10
2091.575528770185
 20
-1995.782579503978
 30
0.0
 11
4837.246036856264
 21
-1995.782579503978
 31
0.0
  0
LINE
  5
1AC
  8
0
  6
CONTINUOUS
 62
   251
 10
3482.98348483299
 20
-3310.643438210275
 30
0.0
 11
3482.98348483299
 21
-680.921720797689
 31
0.0
  0
ENDBLK
  8
0
  0
BLOCK
  8
0
  2
グループ-11
 70
     0
 10
0.0
 20
0.0
 30
0.0
  0
INSERT
  5
1AD
  8
0
 62
   251
  2
グループ-8
 10
0.0
 20
0.0
 30
0.0
  0
INSERT
  5
1AE
  8
0
 62
   251
  2
グループ-9
 10
0.0
 20
0.0
 30
0.0
  0
INSERT
  5
1AF
  8
0
 62
   251
  2
グループ-10
 10
0.0
 20
0.0
 30
0.0
  0
ENDBLK
  8
0
  0
BLOCK
  8
0
  2
グループ-12
 70
     0
 10
0.0
 20
0.0
 30
0.0
  0
LINE
  5
1B0
  8
0
  6
CONTINUOUS
 62
   251
 10
-4746.148000423457
 20
-3963.247277908712
 30
0.0
 11
-2000.477492337375
 21
-3963.247277908712
 31
0.0
  0
LINE
  5
1B1
  8
0
  6
CONTINUOUS
 62
   251
 10
-2000.477492337375
 20
-3963.247277908712
 30
0.0
 11
-2000.477492337375
 21
-6638.24727790871
 31
0.0
  0
LINE
  5
1B2
  8
0
  6
CONTINUOUS
 62
   251
 10
-2000.477492337375
 20
-6638.24727790871
 30
0.0
 11
-4727.575298403691
 21
-6638.24727790871
 31
0.0
  0
LINE
  5
1B3
  8
0
  6
CONTINUOUS
 62
   251
 10
-4746.148000423457
 20
-6638.24727790871
 30
0.0
 11
-4746.148000423457
 21
-3963.247277908712
 31
0.0
  0
LINE
  5
1B4
  8
0
  6
CONTINUOUS
 62
   251
 10
-4746.148000423457
 20
-5300.747277908707
 30
0.0
 11
-2000.477492337375
 21
-5300.747277908707
 31
0.0
  0
LINE
  5
1B5
  8
0
  6
CONTINUOUS
 62
   251
 10
-3354.740044360648
 20
-6638.24727790871
 30
0.0
 11
-3354.740044360648
 21
-3963.247277908712
 31
0.0
  0
ENDBLK
  8
0
  0
BLOCK
  8
0
  2
グループ-13
 70
     0
 10
0.0
 20
0.0
 30
0.0
  0
LINE
  5
1B6
  8
0
  6
CONTINUOUS
 62
   251
 10
-1397.261495073839
 20
-3982.568363989315
 30
0.0
 11
1348.40901301224
 21
-3982.568363989315
 31
0.0
  0
LINE
  5
1B7
  8
0
  6
CONTINUOUS
 62
   251
 10
1348.40901301224
 20
-3982.568363989315
 30
0.0
 11
1348.40901301224
 21
-6612.290081401899
 31
0.0
  0
LINE
  5
1B8
  8
0
  6
CONTINUOUS
 62
   251
 10
1348.40901301224
 20
-6612.290081401899
 30
0.0
 11
-1378.688793054073
 21
-6612.290081401899
 31
0.0
  0
LINE
  5
1B9
  8
0
  6
CONTINUOUS
 62
   251
 10
-1397.261495073839
 20
-6612.290081401899
 30
0.0
 11
-1397.261495073839
 21
-3982.568363989315
 31
0.0
  0
LINE
  5
1BA
  8
0
  6
CONTINUOUS
 62
   251
 10
-1397.261495073839
 20
-5297.429222695602
 30
0.0
 11
1348.40901301224
 21
-5297.429222695602
 31
0.0
  0
LINE
  5
1BB
  8
0
  6
CONTINUOUS
 62
   251
 10
-5.853539011033902
 20
-6612.290081401899
 30
0.0
 11
-5.853539011033902
 21
-3982.568363989315
 31
0.0
  0
ENDBLK
  8
0
  0
BLOCK
  8
0
  2
グループ-14
 70
     0
 10
0.0
 20
0.0
 30
0.0
  0
LINE
  5
1BC
  8
0
  6
CONTINUOUS
 62
   251
 10
2055.427528346732
 20
-4004.1689987064
 30
0.0
 11
4801.098036432807
 21
-4004.1689987064
 31
0.0
  0
LINE
  5
1BD
  8
0
  6
CONTINUOUS
 62
   251
 10
4801.098036432807
 20
-4004.1689987064
 30
0.0
 11
4801.098036432807
 21
-6633.890716118985
 31
0.0
  0
LINE
  5
1BE
  8
0
  6
CONTINUOUS
 62
   251
 10
4801.098036432807
 20
-6633.890716118985
 30
0.0
 11
2074.000230366497
 21
-6633.890716118985
 31
0.0
  0
LINE
  5
1BF
  8
0
  6
CONTINUOUS
 62
   251
 10
2055.427528346732
 20
-6633.890716118985
 30
0.0
 11
2055.427528346732
 21
-4004.1689987064
 31
0.0
  0
LINE
  5
1C0
  8
0
  6
CONTINUOUS
 62
   251
 10
2055.427528346732
 20
-5319.029857412688
 30
0.0
 11
4801.098036432807
 21
-5319.029857412688
 31
0.0
  0
LINE
  5
1C1
  8
0
  6
CONTINUOUS
 62
   251
 10
3446.835484409536
 20
-6633.890716118985
 30
0.0
 11
3446.835484409536
 21
-4004.1689987064
 31
0.0
  0
ENDBLK
  8
0
  0
BLOCK
  8
0
  2
グループ-15
 70
     0
 10
0.0
 20
0.0
 30
0.0
  0
INSERT
  5
1C2
  8
0
 62
   251
  2
グループ-12
 10
0.0
 20
0.0
 30
0.0
  0
INSERT
  5
1C3
  8
0
 62
   251
  2
グループ-13
 10
0.0
 20
0.0
 30
0.0
  0
INSERT
  5
1C4
  8
0
 62
   251
  2
グループ-14
 10
0.0
 20
0.0
 30
0.0
  0
ENDBLK
  8
0
  0
BLOCK
  8
0
  2
グループ-16
 70
     0
 10
0.0
 20
0.0
 30
0.0
  0
LINE
  5
1C5
  8
0
  6
CONTINUOUS
 62
   251
 10
-4739.392598301148
 20
-7247.389250626473
 30
0.0
 11
-1993.722090215078
 21
-7247.389250626473
 31
0.0
  0
LINE
  5
1C6
  8
0
  6
CONTINUOUS
 62
   251
 10
-1993.722090215078
 20
-7247.389250626473
 30
0.0
 11
-1993.722090215078
 21
-9922.389250626487
 31
0.0
  0
LINE
  5
1C7
  8
0
  6
CONTINUOUS
 62
   251
 10
-1993.722090215078
 20
-9922.389250626487
 30
0.0
 11
-4720.819896281381
 21
-9922.389250626487
 31
0.0
  0
LINE
  5
1C8
  8
0
  6
CONTINUOUS
 62
   251
 10
-4739.392598301148
 20
-9922.389250626487
 30
0.0
 11
-4739.392598301148
 21
-7247.389250626473
 31
0.0
  0
LINE
  5
1C9
  8
0
  6
CONTINUOUS
 62
   251
 10
-4739.392598301148
 20
-8584.889250626484
 30
0.0
 11
-1993.722090215078
 21
-8584.889250626484
 31
0.0
  0
LINE
  5
1CA
  8
0
  6
CONTINUOUS
 62
   251
 10
-3347.984642238353
 20
-9922.389250626487
 30
0.0
 11
-3347.984642238353
 21
-7247.389250626473
 31
0.0
  0
ENDBLK
  8
0
  0
BLOCK
  8
0
  2
グループ-17
 70
     0
 10
0.0
 20
0.0
 30
0.0
  0
LINE
  5
1CB
  8
0
  6
CONTINUOUS
 62
   251
 10
-1390.506092951537
 20
-7266.710336707076
 30
0.0
 11
1355.164415134542
 21
-7266.710336707076
 31
0.0
  0
LINE
  5
1CC
  8
0
  6
CONTINUOUS
 62
   251
 10
1355.164415134542
 20
-7266.710336707076
 30
0.0
 11
1355.164415134542
 21
-9896.432054119676
 31
0.0
  0
LINE
  5
1CD
  8
0
  6
CONTINUOUS
 62
   251
 10
1355.164415134542
 20
-9896.432054119676
 30
0.0
 11
-1371.933390931771
 21
-9896.432054119676
 31
0.0
  0
LINE
  5
1CE
  8
0
  6
CONTINUOUS
 62
   251
 10
-1390.506092951537
 20
-9896.432054119676
 30
0.0
 11
-1390.506092951537
 21
-7266.710336707076
 31
0.0
  0
LINE
  5
1CF
  8
0
  6
CONTINUOUS
 62
   251
 10
-1390.506092951537
 20
-8581.57119541338
 30
0.0
 11
1355.164415134542
 21
-8581.57119541338
 31
0.0
  0
LINE
  5
1D0
  8
0
  6
CONTINUOUS
 62
   251
 10
0.9018631112677689
 20
-9896.432054119676
 30
0.0
 11
0.9018631112677689
 21
-7266.710336707076
 31
0.0
  0
ENDBLK
  8
0
  0
BLOCK
  8
0
  2
グループ-18
 70
     0
 10
0.0
 20
0.0
 30
0.0
  0
LINE
  5
1D1
  8
0
  6
CONTINUOUS
 62
   251
 10
2062.182930469034
 20
-7288.310971424161
 30
0.0
 11
4807.853438555117
 21
-7288.310971424161
 31
0.0
  0
LINE
  5
1D2
  8
0
  6
CONTINUOUS
 62
   251
 10
4807.853438555117
 20
-7288.310971424161
 30
0.0
 11
4807.853438555117
 21
-9918.032688836764
 31
0.0
  0
LINE
  5
1D3
  8
0
  6
CONTINUOUS
 62
   251
 10
4807.853438555117
 20
-9918.032688836764
 30
0.0
 11
2080.755632488799
 21
-9918.032688836764
 31
0.0
  0
LINE
  5
1D4
  8
0
  6
CONTINUOUS
 62
   251
 10
2062.182930469034
 20
-9918.032688836764
 30
0.0
 11
2062.182930469034
 21
-7288.310971424161
 31
0.0
  0
LINE
  5
1D5
  8
0
  6
CONTINUOUS
 62
   251
 10
2062.182930469034
 20
-8603.171830130465
 30
0.0
 11
4807.853438555117
 21
-8603.171830130465
 31
0.0
  0
LINE
  5
1D6
  8
0
  6
CONTINUOUS
 62
   251
 10
3453.590886531831
 20
-9918.032688836764
 30
0.0
 11
3453.590886531831
 21
-7288.310971424161
 31
0.0
  0
ENDBLK
  8
0
  0
BLOCK
  8
0
  2
グループ-19
 70
     0
 10
0.0
 20
0.0
 30
0.0
  0
INSERT
  5
1D7
  8
0
 62
   251
  2
グループ-16
 10
0.0
 20
0.0
 30
0.0
  0
INSERT
  5
1D8
  8
0
 62
   251
  2
グループ-17
 10
0.0
 20
0.0
 30
0.0
  0
INSERT
  5
1D9
  8
0
 62
   251
  2
グループ-18
 10
0.0
 20
0.0
 30
0.0
  0
ENDBLK
  8
0
  0
BLOCK
  8
0
  2
グループ-20
 70
     0
 10
0.0
 20
0.0
 30
0.0
  0
LINE
  5
1DA
  8
0
  6
CONTINUOUS
 62
   251
 10
-4773.842227598161
 20
-10531.39612929769
 30
0.0
 11
-1983.84222759817
 21
-10531.39612929769
 31
0.0
  0
LINE
  5
1DB
  8
0
  6
CONTINUOUS
 62
   251
 10
-4773.842227598161
 20
-12003.92890836765
 30
0.0
 11
-1983.84222759817
 21
-12003.92890836765
 31
0.0
  0
LINE
  5
1DC
  8
0
  6
CONTINUOUS
 62
   251
 10
-4773.842227598161
 20
-10531.39612929769
 30
0.0
 11
-4773.842227598161
 21
-11971.39612929769
 31
0.0
  0
LINE
  5
1DD
  8
0
  6
CONTINUOUS
 62
   251
 10
-1991.382865788778
 20
-10531.39612929769
 30
0.0
 11
-1991.382865788778
 21
-12009.55838855712
 31
0.0
  0
LINE
  5
1DE
  8
0
  6
CONTINUOUS
 62
   251
 10
-4773.842227598161
 20
-11230.88769280237
 30
0.0
 11
-1983.84222759817
 21
-11230.88769280237
 31
0.0
  0
LINE
  5
1DF
  8
0
  6
CONTINUOUS
 62
   251
 10
-3325.177721870753
 20
-12003.92890836765
 30
0.0
 11
-3325.177721870753
 21
-10531.39612929769
 31
0.0
  0
ENDBLK
  8
0
  0
BLOCK
  8
0
  2
グループ-21
 70
     0
 10
0.0
 20
0.0
 30
0.0
  0
LINE
  5
1E0
  8
0
  6
CONTINUOUS
 62
   251
 10
-1350.036904856628
 20
-10531.39612929769
 30
0.0
 11
1439.963095143372
 21
-10531.39612929769
 31
0.0
  0
LINE
  5
1E1
  8
0
  6
CONTINUOUS
 62
   251
 10
-1350.036904856628
 20
-12003.92890836765
 30
0.0
 11
1439.963095143372
 21
-12003.92890836765
 31
0.0
  0
LINE
  5
1E2
  8
0
  6
CONTINUOUS
 62
   251
 10
-1350.036904856628
 20
-10531.39612929769
 30
0.0
 11
-1350.036904856628
 21
-12009.55838855712
 31
0.0
  0
LINE
  5
1E3
  8
0
  6
CONTINUOUS
 62
   251
 10
1438.165939435036
 20
-10531.39612929769
 30
0.0
 11
1438.165939435036
 21
-12009.55838855712
 31
0.0
  0
LINE
  5
1E4
  8
0
  6
CONTINUOUS
 62
   251
 10
-1350.036904856628
 20
-11230.88769280237
 30
0.0
 11
1439.963095143372
 21
-11230.88769280237
 31
0.0
  0
ENDBLK
  8
0
  0
BLOCK
  8
0
  2
グループ-22
 70
     0
 10
0.0
 20
0.0
 30
0.0
  0
LINE
  5
1E5
  8
0
  6
CONTINUOUS
 62
   251
 10
2044.803154686626
 20
-10545.09062636256
 30
0.0
 11
4834.80315468661
 21
-10545.09062636256
 31
0.0
  0
LINE
  5
1E6
  8
0
  6
CONTINUOUS
 62
   251
 10
2044.803154686626
 20
-12017.62340543252
 30
0.0
 11
4834.80315468661
 21
-12017.62340543252
 31
0.0
  0
LINE
  5
1E7
  8
0
  6
CONTINUOUS
 62
   251
 10
2044.803154686626
 20
-10545.09062636256
 30
0.0
 11
2044.803154686626
 21
-11985.09062636256
 31
0.0
  0
LINE
  5
1E8
  8
0
  6
CONTINUOUS
 62
   251
 10
4827.262516496002
 20
-10545.09062636256
 30
0.0
 11
4827.262516496002
 21
-12023.252885622
 31
0.0
  0
LINE
  5
1E9
  8
0
  6
CONTINUOUS
 62
   251
 10
2044.803154686626
 20
-11244.58218986725
 30
0.0
 11
4834.80315468661
 21
-11244.58218986725
 31
0.0
  0
LINE
  5
1EA
  8
0
  6
CONTINUOUS
 62
   251
 10
3493.46766041403
 20
-12017.62340543252
 30
0.0
 11
3493.46766041403
 21
-10545.09062636256
 31
0.0
  0
ENDBLK
  8
0
  0
ENDSEC
  0
SECTION
  2
ENTITIES
  0
INSERT
  5
1EB
  8
0
 62
     7
  2
グループ
 10
0.0
 20
0.0
 30
0.0
  0
LINE
  5
1EC
  8
VENUE
  6
CONTINUOUS
 62
     1
 10
-5483.272770360142
 20
8482.51240249124
 30
0.0
 11
-5483.272770360142
 21
1480.0
 31
0.0
  0
LINE
  5
1ED
  8
VENUE
  6
CONTINUOUS
 62
     1
 10
-1983.272770360127
 20
8482.51240249124
 30
0.0
 11
-1983.272770360127
 21
1479.999999999999
 31
0.0
  0
LINE
  5
1EE
  8
VENUE
  6
CONTINUOUS
 62
     1
 10
2016.727229639878
 20
8482.51240249124
 30
0.0
 11
2016.727229639878
 21
1480.0
 31
0.0
  0
LINE
  5
1EF
  8
VENUE
  6
CONTINUOUS
 62
     1
 10
5512.727229639858
 20
8478.51240249124
 30
0.0
 11
5512.727229639858
 21
1480.000000000001
 31
0.0
  0
LINE
  5
1F0
  8
VENUE
  6
CONTINUOUS
 62
     1
 10
5512.727229639858
 20
8478.51240249124
 30
0.0
 11
-5479.272770360142
 21
8478.512402491233
 31
0.0
  0
LINE
  5
1F1
  8
VENUE
  6
CONTINUOUS
 62
     1
 10
5516.727229639858
 20
4984.512402491242
 30
0.0
 11
-5483.27277036014
 21
4984.512402491238
 31
0.0
  0
LINE
  5
1F2
  8
0
  6
CONTINUOUS
 62
     1
 10
2012.727229639878
 20
8478.51240249124
 30
0.0
 11
2016.727229639878
 21
8478.51240249124
 31
0.0
  0
LINE
  5
1F3
  8
0
  6
CONTINUOUS
 62
     1
 10
5512.727229639858
 20
4984.512402491242
 30
0.0
 11
5512.727229639858
 21
4980.512402491242
 31
0.0
  0
LINE
  5
1F4
  8
VENUE
  6
CONTINUOUS
 62
     1
 10
5516.727229639858
 20
1480.000000000001
 30
0.0
 11
-5483.27277036014
 21
1479.999999999997
 31
0.0
  0
LINE
  5
1F5
  8
VENUE
  6
CONTINUOUS
 62
     1
 10
-1983.272770360127
 20
1473.316580725691
 30
0.0
 11
-1983.272770360127
 21
-5529.195821765539
 31
0.0
  0
LINE
  5
1F6
  8
VENUE
  6
CONTINUOUS
 62
     1
 10
2016.727229639878
 20
1473.316580725691
 30
0.0
 11
2016.727229639878
 21
-5529.195821765538
 31
0.0
  0
LINE
  5
1F7
  8
VENUE
  6
CONTINUOUS
 62
     1
 10
2016.727229639878
 20
-2024.683419274307
 30
0.0
 11
-1983.272770360127
 21
-2024.683419274307
 31
0.0
  0
LINE
  5
1F8
  8
VENUE
  6
CONTINUOUS
 62
     1
 10
2017.001743320988
 20
-5529.195821765541
 30
0.0
 11
-1983.546856589644
 21
-5529.195821765541
 31
0.0
  0
INSERT
  5
1F9
  8
0
 62
   251
  2
グループ-1
 10
0.0
 20
0.0
 30
0.0
  0
INSERT
  5
1FA
  8
0
 62
   251
  2
グループ-2
 10
0.0
 20
0.0
 30
0.0
  0
LINE
  5
1FB
  8
0
  6
CONTINUOUS
 62
   251
 10
-10.39132487000575
 20
6373.259412690626
 30
0.0
 11
-10.39132487000575
 21
7845.792191760585
 31
0.0
  0
LINE
  5
1FC
  8
0
  6
CONTINUOUS
 62
   251
 10
-4785.845659616309
 20
5789.540169390483
 30
0.0
 11
-1970.370010087743
 21
5789.540169390483
 31
0.0
  0
LINE
  5
1FD
  8
0
  6
CONTINUOUS
 62
   251
 10
-1970.370010087743
 20
5789.540169390483
 30
0.0
 11
-1970.370010087743
 21
3368.458219808329
 31
0.0
  0
LINE
  5
1FE
  8
0
  6
CONTINUOUS
 62
   251
 10
-1970.370010087743
 20
3368.458219808329
 30
0.0
 11
-4766.80077053417
 21
3368.458219808329
 31
0.0
  0
LINE
  5
1FF
  8
0
  6
CONTINUOUS
 62
   251
 10
-4785.845659616309
 20
3368.458219808329
 30
0.0
 11
-4785.845659616309
 21
5789.540169390483
 31
0.0
  0
LINE
  5
200
  8
0
  6
CONTINUOUS
 62
   251
 10
-4785.845659616309
 20
4578.999194599404
 30
0.0
 11
-1970.370010087743
 21
4578.999194599404
 31
0.0
  0
LINE
  5
201
  8
0
  6
CONTINUOUS
 62
   251
 10
-3359.062945769888
 20
3368.458219808329
 30
0.0
 11
-3359.062945769888
 21
5789.540169390483
 31
0.0
  0
INSERT
  5
202
  8
一般
 62
     7
  2
グループ-6
 10
0.0
 20
0.0
 30
0.0
  0
LINE
  5
203
  8
一般
  6
CONTINUOUS
 62
     7
 10
-4794.307590679527
 20
8390.0
 30
0.0
 11
-4798.640104383955
 21
7834.975459974287
 31
0.0
  0
LINE
  5
204
  8
一般
  6
CONTINUOUS
 62
     7
 10
-4388.640104383955
 20
7844.975459974287
 30
0.0
 11
-1991.943190300184
 21
7844.975459974287
 31
0.0
  0
LINE
  5
205
  8
一般
  6
CONTINUOUS
 62
     7
 10
-2004.866022804252
 20
7844.975459974287
 30
0.0
 11
-2007.230423183597
 21
8390.0
 31
0.0
  0
LINE
  5
206
  8
一般
  6
CONTINUOUS
 62
     7
 10
-4774.307590679527
 20
8370.0
 30
0.0
 11
-1991.943190300184
 21
8379.735257462129
 31
0.0
  0
LINE
  5
207
  8
一般
  6
CONTINUOUS
 62
     7
 10
-1343.68923110309
 20
8345.274362568496
 30
0.0
 11
1446.31076889691
 21
8345.274362568496
 31
0.0
  0
LINE
  5
208
  8
一般
  6
CONTINUOUS
 62
     7
 10
-1352.202266138547
 20
8360.0
 30
0.0
 11
-1352.202266138547
 21
7850.0
 31
0.0
  0
LINE
  5
209
  8
一般
  6
CONTINUOUS
 62
     7
 10
1429.489076201899
 20
8340.0
 30
0.0
 11
1429.489076201899
 21
7830.0
 31
0.0
  0
INSERT
  5
20A
  8
0
 62
   251
  2
グループ-7
 10
0.0
 20
0.0
 30
0.0
  0
LINE
  5
20B
  8
一般
  6
CONTINUOUS
 62
     7
 10
2024.337791605255
 20
8376.305502935129
 30
0.0
 11
2020.005277900827
 21
7821.280962909416
 31
0.0
  0
LINE
  5
20C
  8
一般
  6
CONTINUOUS
 62
     7
 10
2430.005277900827
 20
7831.280962909416
 30
0.0
 11
4826.702191984598
 21
7831.280962909416
 31
0.0
  0
LINE
  5
20D
  8
一般
  6
CONTINUOUS
 62
     7
 10
4813.779378737037
 20
7831.280962909416
 30
0.0
 11
4811.414978357692
 21
8376.305502935129
 31
0.0
  0
LINE
  5
20E
  8
一般
  6
CONTINUOUS
 62
     7
 10
2044.337791605255
 20
8356.305502935129
 30
0.0
 11
4826.702191984598
 21
8366.040760397258
 31
0.0
  0
LINE
  5
20F
  8
0
  6
CONTINUOUS
 62
   251
 10
-1417.092668227513
 20
5734.154334991865
 30
0.0
 11
1398.382981301054
 21
5734.154334991865
 31
0.0
  0
LINE
  5
210
  8
0
  6
CONTINUOUS
 62
   251
 10
1398.382981301054
 20
5734.154334991865
 30
0.0
 11
1398.382981301054
 21
3313.07238540971
 31
0.0
  0
LINE
  5
211
  8
0
  6
CONTINUOUS
 62
   251
 10
1398.382981301054
 20
3313.07238540971
 30
0.0
 11
-1398.047779145374
 21
3313.07238540971
 31
0.0
  0
LINE
  5
212
  8
0
  6
CONTINUOUS
 62
   251
 10
-1417.092668227513
 20
3313.07238540971
 30
0.0
 11
-1417.092668227513
 21
5734.154334991865
 31
0.0
  0
LINE
  5
213
  8
0
  6
CONTINUOUS
 62
   251
 10
-1417.092668227513
 20
4523.613360200786
 30
0.0
 11
1398.382981301054
 21
4523.613360200786
 31
0.0
  0
LINE
  5
214
  8
0
  6
CONTINUOUS
 62
   251
 10
9.690045618908785
 20
3313.07238540971
 30
0.0
 11
9.690045618908785
 21
5734.154334991865
 31
0.0
  0
LINE
  5
215
  8
0
  6
CONTINUOUS
 62
   251
 10
2066.593905438899
 20
5757.536995024406
 30
0.0
 11
4882.069554967467
 21
5757.536995024406
 31
0.0
  0
LINE
  5
216
  8
0
  6
CONTINUOUS
 62
   251
 10
4882.069554967467
 20
5757.536995024406
 30
0.0
 11
4882.069554967467
 21
3336.455045442251
 31
0.0
  0
LINE
  5
217
  8
0
  6
CONTINUOUS
 62
   251
 10
4882.069554967467
 20
3336.455045442251
 30
0.0
 11
2085.638794521038
 21
3336.455045442251
 31
0.0
  0
LINE
  5
218
  8
0
  6
CONTINUOUS
 62
   251
 10
2066.593905438899
 20
3336.455045442251
 30
0.0
 11
2066.593905438899
 21
5757.536995024406
 31
0.0
  0
LINE
  5
219
  8
0
  6
CONTINUOUS
 62
   251
 10
2066.593905438899
 20
4546.996020233327
 30
0.0
 11
4882.069554967467
 21
4546.996020233327
 31
0.0
  0
LINE
  5
21A
  8
0
  6
CONTINUOUS
 62
   251
 10
3493.376619285321
 20
3336.455045442251
 30
0.0
 11
3493.376619285321
 21
5757.536995024406
 31
0.0
  0
INSERT
  5
21B
  8
一般
 62
     7
  2
グループ-11
 10
0.0
 20
0.0
 30
0.0
  0
INSERT
  5
21C
  8
一般
 62
     7
  2
グループ-15
 10
0.0
 20
0.0
 30
0.0
  0
INSERT
  5
21D
  8
一般
 62
     7
  2
グループ-19
 10
0.0
 20
0.0
 30
0.0
  0
INSERT
  5
21E
  8
0
 62
   251
  2
グループ-20
 10
0.0
 20
0.0
 30
0.0
  0
INSERT
  5
21F
  8
0
 62
   251
  2
グループ-21
 10
0.0
 20
0.0
 30
0.0
  0
LINE
  5
220
  8
0
  6
CONTINUOUS
 62
   251
 10
-1.775820771837267
 20
-12006.2989758665
 30
0.0
 11
-1.775820771837267
 21
-10533.76619679654
 31
0.0
  0
LINE
  5
221
  8
一般
  6
CONTINUOUS
 62
     7
 10
-4380.024600285789
 20
-10534.58292858284
 30
0.0
 11
-1983.327686202016
 21
-10534.58292858284
 31
0.0
  0
INSERT
  5
222
  8
0
 62
   251
  2
グループ-22
 10
0.0
 20
0.0
 30
0.0
  0
LINE
  5
223
  8
一般
  6
CONTINUOUS
 62
     7
 10
2438.620781998998
 20
-10548.27742564771
 30
0.0
 11
4835.317696082764
 21
-10548.27742564771
 31
0.0
  0
ENDSEC
  0
EOF
